Mest - Cadillac Chords & Tabs

 

Cadillac Chords & Tabs

Mest Chords & Tabs

Version: 1 Type: Bass Tab 0 ratings
1 star 2 stars 3 stars 4 stars 5 stars
comments

Cadillac Bass Tab

			     Mest-Cadilac

Tabbed By : fake_sk8ter182
e-mail: ihatehearsay@hotmail.com

Tuning:EADG

Intro/Chorus
[ Tab from: http://www.guitartabs.cc/tabs/m/mest/cadillac_btab.html ]
G|---------------------------------------------------------------------------|
D|---------------------------------------------------------------------------|
A|-2-2-----------------------------------------------------------------------|
E|-----2-2-0-0-2-2-----------------------------------------------------------|

Verse

G|---------------------------------------------------------------------------|
D|---------------------------------------------------------------------------|
A|-2-2-2-2-2-2-2-2-----------------------------------------------------------|
E|----------------2-2-2-2-2-2-2-2-0-0-0-0-0-0-0-0-2-2-2-2-2-2-2-2------------|

Thats pretty much it so enjoy!!!!!
Comments