Mest - Broken Glass Chords & Tabs

 

Broken Glass Chords & Tabs

Mest Chords & Tabs

Version: 1 Type: Bass Tab 0 ratings
1 star 2 stars 3 stars 4 stars 5 stars
comments

Broken Glass Bass Tab

   
[INTRO]
G-------------------------------------------------|
D-------------------------------------------------|
A-------------------------------------------------|
E---44-44-44-44-42-000000000000-------------------|

[VERSE]
G-----------------------------|
D-----------------------------|
A-----------------------------|
E------44----22-----00-----22-|    x2

[PRE-CHORUS]
G------------------------------------------|
D------------------------------------------|
A------------------------------------------|
E-44444444--22222222-00000000--22222222----|   x2

[CHORUS]
G---------------------------------------|
D---------------------------------------|
A---------------------------------------|
E---7-77---72-22-----2-4-2--------------|  x 2

G---------------------------------------|
D---------------------------------------|
A---------------------------------------|
E---7777----2222----4444---0000---------|  x 2

[VERSE]
G-----------------------------|
D-----------------------------|
A-----------------------------|
E------44----22-----00-----22-|    x2

[PRE-CHORUS]
G------------------------------------------|
D------------------------------------------|
A------------------------------------------|
E-44444444--22222222-00000000--22222222----|   x2

[CHORUS A]
G---------------------------------------|
D---------------------------------------|
A---------------------------------------|
E---7-77---72-22-----2-4-2--------------|  x 2
[ Tab from: http://www.guitartabs.cc/tabs/m/mest/broken_glass_btab.html ]
[CHORUS B]
G---------------------------------------|
D---------------------------------------|
A---------------------------------------|
E---7777----2222----4444---0000---------|  x 2

G-------------------------------------------------|
D-------------------------------------------------|
A-------------------------------------------------|
E---44-44-44-44-42-000000000000-------------------|

G-------------------------------------------------|
D-------------------------------------------------|
A-------------------------------------------------|
E---4444444444442-000000000000--2222222-----------|  x3

G-------------------------------------------------|
D-------------------------------------------------|
A-------------------------------------------------|
E---44444444444-22222222222-0000000000------------|

G-------------------------------------------------|
D-------------------------------------------------|
A-------------------------------------------------|
E-------------------------------------------------|

G----------------------------------------|
D----------------------------------------|
A----------------------------------------|
E----4----2--0---------------------------|

[CHORUS A]
G---------------------------------------|
D---------------------------------------|
A---------------------------------------|
E---7-77---72-22-----2-4-2--------------|  x 2

[CHORUS B]
G---------------------------------------|
D---------------------------------------|
A---------------------------------------|
E---7777----2222----4444---0000---------|  x 2

[outro]
G-------------------------------------------------|
D-------------------------------------------------|
A-------------------------------------------------|
E---44-44-44-44-42-000000000000-------------------|
Comments