Mest - Another Day Chords & Tabs

 

Another Day Chords & Tabs

Mest Chords & Tabs

Version: 1 Type: Tab 0 ratings
1 star 2 stars 3 stars 4 stars 5 stars
comments

Another Day Tab

ANOTHER DAY - Mest

By:Yasushi; le991030@cie.aichi-pu.ac.jp

Intro:  "another day gone by..." 
 (sorry i couldn't figure out, but i believe it's E chord arpeggio) 

Verse:  "i opened every door to you..."  
e|-----------------------|
B|-----------------------|
G|--9-----8-----6--------|
D|--9-----8-----6-----9--|x4 (2nd verse: play 8 times)
A|--7-----6-----4-----9--|
E|--------------------7--|

Pre-Chorus:  "it's just another day..."
e|---------------------------------------------------------|
B|---------------------------------------------------------|
G|--9--------------------------9-----8-----6---------------|
D|--9------2/6-----7-----9-----9-----8-----6------7-----9--|
A|--7------2/6-----7-----9-----7-----6-----4------7-----9--|
E|---------0/4-----5-----7------------------------5-----7--|
[ Tab from: http://www.guitartabs.cc/tabs/m/mest/another_day_tab.html ]
Chorus:  "the times change and minds rearrange..."
e|-----------------------|   |---------------|
B|--------[*]------------|   |---------------|
G|--9-----------6--------|   |----------6----|
D|--9-----7-----6-----9--|x4 |--7-----6-6-9--|
A|--7-----7-----4-----9--|   |--7-----6-4-9--|
E|--------5-----------7--|   |--5-----4---7--|

Bridge:  "you say there's too much past with him..." 
e|---------------------------|
B|---------------------------|
G|------------------9--------|
D|--9-7-6-----7-----9-----9--|x2
A|--9-7-6-----7-----7-----9--|
E|--7-5-4-----5-----------7--|

Gt. Solo:
e|---------------------|
B|--------7--9--10--9--|
G|--9--8---------------|
D|---------------------|x4 (play [*] part 4 times during the solo)
A|---------------------|
E|---------------------|

3rd Chorus:
e|-----------------------|   |-------------------------|
B|-----------------------|   |-------------------------|
G|--9-----------6--------|   |----------6--------------|
D|--9-----7-----6-----9--|x6 |--7-----6-6-9-----7/6-2--|
A|--7-----7-----4-----9--|   |--7-----6-4-9-----7/6-2--|
E|--------5-----------7--|   |--5-----4---7-----5/4-0--|

Listen the CD to get the rhythm and order.
Comments