Mest - Another Day Chords & Tabs

 

Another Day Chords & Tabs

Mest Chords & Tabs

Version: 1 Type: Bass Tab 0 ratings
1 star 2 stars 3 stars 4 stars 5 stars
comments

Another Day Bass Tab

   
------------------------------------------------------------------------------- 
                          ANOTHER DAY - Mest 
------------------------------------------------------------------------------- 

Hey Im new at this bass thing (I just got my bass for Christmas) but here is a 
great song I figured out. Its a bit more complicated during some parts of it 
then what I have written here (for ex. the end of the Prechorus is a series of 
arpeggios) but this plays right along with the song anyway. Email me at 
Nelly91401@aol.com with questions, comments, etc. 

Verse: 
G|---------------| 
D|--22-11--------| Repeat 4xs 
A|---------44-22-| 
E|---------------| 
Come in at about 12 sec at I Opened every door 

Pre-Chorus: (Its Just another day) 
G|-------------------------------------------| 
D|---------------------22-11-----------------| 
A|-----------0000-2222-------44-22-0000-2222-| 
E|--00000024---------------------------------| 
[ Tab from: http://www.guitartabs.cc/tabs/m/mest/another_day_btab.html ]
Chorus: (Times Change) 
G|-------------| 
D|-22----------| Repeat 4xs 
A|----00-44-22-| 
E|-------------| 

Mini Bridge Thing: 
G|-------------------| 
D|-------------------| 
A|-000000-4-22222222-| 
E|-------4-----------| 

Repeat: Verse 8xs, Prechorus, Chorus 4xs, Mini Bridge Thing 

Actual Bridge: (You say theres) 
G|---------------------------------------------------------------------------| 
D|--------------------22222222----------------------------22222222-----------| 
A|-----------00000000----------22222220----------00000000----------22222222--| 
E|--44444444----------------------------44444444-----------------------------| 

Then Play: (4xs during guitar break) 
G|--------------| 
D|--22----------| 
A|-----00-44-22-| 
E|--------------| 

Play Chorus 2xs softly then 6xs regular 

End With: 
G|---------------------| 
D|---------------------| Thats All  Enjoy!!!!!!! 
A|-000000-4-22222222---| 
E|-------4-----------0-| 

===============================================================================
Comments