Mest - 2000 Miles Chords & Tabs

 

2000 Miles Chords & Tabs

Mest Chords & Tabs

Version: 1 Type: Bass Tab 0 ratings
1 star 2 stars 3 stars 4 stars 5 stars
comments

2000 Miles Bass Tab

This should be pretty accurate. Please e-mail any corrections to me at XxwearewearexX@aol.com. thanks Ally.

Bass comes in at 00:14
G:-----------------------------------------:
D:-----------------------------------------:
A:----333----------------------------------:
E:---------333--111--333--555--333?111--3--:

Chorus (play it like this the first time) 00:23
G:-----------------------------------------------------------------:
D:-----------------------------------------------------------------:
A:------------3-33--3-33-------------------------------------------:
E:--11111-33--------------3-33--3-33---5-55--3-33--1-11--11111-11--:

Chorus
G:-------------------------------------------------------------------------------------------------------------------------------:
D:-------------------------------------------------------------------------------------------------------------------------------:
A:----333------------------------------------------------------------------------------------------------------------------------:
E:---------333---111---333?555555-333333-111111-333333-555555--333333-111111-3-3-3333-555555-333333-111111-555555-333333-111111--:
[ Tab from: http://www.guitartabs.cc/tabs/m/mest/2000_miles_btab.html ]
Verse
G:-------------------------------------------------------------------------------------------------------------------------:
D:-------------------------------------------------------------------------------------------------------------------------:
A:----3-33--3-33-------------------------------------3-33?-3-33------------------------------------------------------------:
E:-----------------3-33--3-33---5-55?-3-33?-1?11-1?---------------3-33?3-33----1--11?-1-11?-------5-55?-3-33?-1-11--111?3--:

start this at 1:30
G:-----------------------------------------------------------------------------------------------------:
D:-----------------------------------------------------------------------------------------------------:
A:-----------------------------------------------------------------------------------------------------:
E:---5555555555555555-111111111111111--(ifItoldyouthatIlovedyou..)--5555555555555555-1111111111111111--:

G:----------------------------------------------------------------:
D:----------------------------------------------------------------:
A:----------------------------------------------------------------:
E:-(ifItoldyouthatIneedyou)--5555555555555555-1111111111111111----:


start this at 2:08
G:------------------------------------------------------------------------------------------------------------------------------------:
D:------------------------------------------------------------------------------------------------------------------------------------:
A:------88-8--7--8-7--88-8--7-8-7--------------------88-------------------------------------------------------------------------------:
E:----------------------------------8--8--------88---------55555555--33333333--11111111--3-3-3-3--88888888--33333333--11111111--3333--:
Comments