Meredith Brooks - Bitch Chords & Tabs

 

Bitch Chords & Tabs

Meredith Brooks Chords & Tabs

Version: 2 Type: Tab 0 ratings
1 star 2 stars 3 stars 4 stars 5 stars
comments

Bitch Tab

song-bitch
artist-meredeth brooks
tabbed by-smellslikefeet1

these arent like my usual tabs but u gotta admit its a good tune
and anyone who says otherwise is  a liar so who evers lookin at this tab i hope its the right one ;) enjoy

  verse1
|---------------|
|---------------|
|-----9--7------|x4
|--7--9--7------|
|--7--7--5------|
|--5------------|

|------------------|
|------------------|
|-----9--7---------|once
|--9--9--7---------|
|--9--7--5---------|
|--7---------------|
 srtum cords
|-----------------|
|-----------------|
|-----9--7--------|x2
|--7--9--7--------|
|--7--7--5--------|
|--5--------------|
strum chords
|-----------------|
|-----------------|
|-----9--7--------|
|--9--9--7--------|once
|--9--7--5--------|
|--7--------------|
[ Tab from: http://www.guitartabs.cc/tabs/m/meredith_brooks/bitch_tab_ver_2.html ]
chorus
hit the distortion!
|---------------------------------------------------------------------|
|---------------------------------------------------------------------|
|--------------------7-7-7-7-7-7-7-7-----------------9-9-9-9-9-9-9-9--|
|------7-7-7-7-7-7-7-7-7-7-7-7-7-7-7-9-9-9-9-9-9-9-9-7-9-9-9-9-9-9-9--|x2
|------7-7-7-7-7-7-7-5-5-5-5-5-5-5-5-9-9-9-9-9-9-9-9-7-7-7-7-7-7-7-7--|
|-12s5-5-5-5-5-5-5-5-----------------7-7-7-7-7-7-7-7------------------|

play verse again
play chorus again
cords through solo are same as in first part of the verse

bridge
|------------|
|------------|
|-----9--7---|strum w/destortion x2
|--9--9--7---|
|--9--7--5---|
|--7---------|

play chorus again till end

end on a cord
|--7-|
|--7-|
|--7-|
|--6-|
|--7-|
|--7-|
|--5-|


thats it i hope its right enjoi!
Comments