Meredith Brooks - Bitch Chords & Tabs

 

Bitch Chords & Tabs

Meredith Brooks Chords & Tabs

Version: 1 Type: Tab 0 ratings
1 star 2 stars 3 stars 4 stars 5 stars
comments

Bitch Tab

   
Meredith Brooks, Bitch.
 Tabbed by Amanda Holub, moonspyke@juno.com.
  
okay, since i havent found any REALLY good \"bitch\" tabs, i picked this one out by ear:
Okay, for the verses, usually you just play:
E:|
B:|
G:|
D:|
A:|0-7-5
E:|
and repeat that a bunch of times until the chorus, give it some attitude if you like.
chorus:
E:|-------------------------------------------------
B:|-------------------------------------------------
G:|-------------------------------------------------
D:|-------------------------------------------------
A:|--3-5--3-5-3--3-5--3-5-3------------------3-3-3-5
E:|4----4------4----4-------4-0-2-2-2-2-4-0-4-------
[ Tab from: http://www.guitartabs.cc/tabs/m/meredith_brooks/bitch_tab.html ]
E:|-------------------------------------------------
B:|-------------------------------------------------
G:|-------------------------------------------------
D:|-------------------------------------------------
A:|--3-5--3-5-3-8-7-7-5-5-3-3-0-3-5-8-7-7-5-5-3-3---
E:|4----4-----------------------------------------0-

I hate the world today
your so good to me i know but i can't change
tryed to tell you but you look at me like maybe
i'm an angel underneath
innocent and sweet

Yesterday i cried
you must have been relieved to see the softer side
i can understand why you'd be so confused
i don't envy you
i'm a little bit of everything all rolled into one!

chorus:

I'm a bitch
i'm a lover
i'm a child
i'm a mother 
i'm a sinner
i'm a saint
i do not feel ashamed
i'm your hell
i'm your dream
i'm nothin' inbetween 
you know you wouldn't want it any other way 
:: Ultimate Guitar Archive :: 
http://www.ultimate-guitar.com 



Comments