Mercyful Fate - Return Of The Vampire Chords & Tabs

 

Return Of The Vampire Chords & Tabs

Mercyful Fate Chords & Tabs

Version: 1 Type: Bass Tab 0 ratings
1 star 2 stars 3 stars 4 stars 5 stars
comments

Return Of The Vampire Bass Tab

              |                     MERCYFUL FATE                   |
            __|__               RETURN OF THE VAMPIRE             __|__
              |                                                     |

Now, I don´t know if there is another version (probably not) but this is the 
-81 version, recorded in Copenhagen from the album "RETURN OF THE VAMPIRE".
Sorry but I did´nt manage to make it all the way; I just can´t do the bridge!!!
But if you feel like do a tab on this track, take my stuff (if it helps you...)
I noticed that I failed doing alot of shit on this one.....sorry...............


Intro
---------------------------
---------------------------
---------------------------
--5------------------------
Let Ring

Intro
---------------------------
---------------------------
-----------0---------------
-2--2-2--2----2--2-0-2-0---
[ Tab from: http://www.guitartabs.cc/tabs/m/mercyful_fate/return_of_the_vampire_btab.html ]
Verse Fill
-------------------------------------
-------------------------------------
-------------------------------------
-2--2--2--2--2--2--2--2--2--2--2--2--

Verse
---------------------------
---------------------------
-----------0---------------
-2--2-2--2----2--2-0-2-0---

Pre
-------------------------------
-------------------------------
--------------------0-3-2-0----
-6--6-6--6-6-5--0-2---------0--

Chorus
-------------------------------------------------------------------
-------------------------------------------------------------------
-0-2-3--3-3--3-5-7--7-7--8-10--10-9-5--5-7-8--8-7-3---7--5-7-5-3-5-
-------------------------------------------------------------------

some Bridge riff...   ending
----------------|-------------------
-----4----------|-------------------
------------0---|-------------------
-2-2----2-2-----|--2-3-4-5-3-5-6-7--

Ending
---------------|----------------|---------
---------------|----------------|---------
-4-4-4-4-4-2-2-|-6-6-6-6-6-4-4--|-4-------
---------------|----------------|------2--




/metal_up_your_ass@2die4.com

Comments