Mercy Me - I Can Only Imagine Chords & Tabs

 

I Can Only Imagine Chords & Tabs

Mercy Me Chords & Tabs

Version: 2 Type: Tab 0 ratings
1 star 2 stars 3 stars 4 stars 5 stars
comments

I Can Only Imagine Tab

This is played as the intro and througout the song
Mercy Me - I Can Only Imagine
[ Tab from: http://www.guitartabs.cc/tabs/m/mercy_me/i_can_only_imagine_tab_ver_2.html ]
e|-11-12-7------7----7-------------5------------------------
B|----------4-5----45---4-5-2--4-5--------------------------
G|----------------------------------------------------------
D|----------------------------------------------------------
A|----------------------------------------------------------
E|----------------------------------------------------------

e|-11-12-7------7-------------5-----------------------------
B|----------4-5----4-5-2--4-5-------------------------------
G|----------------------------------------------------------
D|----------------------------------------------------------
A|----------------------------------------------------------
E|----------------------------------------------------------

Listen to song for timing
Have Fun!
Comments