Mercy Me - I Can Only Imagine Chords & Tabs

 

I Can Only Imagine Chords & Tabs

Mercy Me Chords & Tabs

Version: 1 Type: Tab 0 ratings
1 star 2 stars 3 stars 4 stars 5 stars
comments

I Can Only Imagine Tab

   
Intro (usually done by piano but can be done by guitar)

e-----------------7--------7*---------------5-----------------
b----4-5-0----4-5----4*-5*-----4-5-2----4-5-------------------
g-------------------------------------------------------------
D-------------------------------------------------------------
A-------------------------------------------------------------
E-------------------------------------------------------------

The intro can be played on a higher octave too... 


e--11-12-7---11-12-19---11*-12*-19*---11-12-9---11-12-17------
b-------------------------------------------------------------
g-------------------------------------------------------------
D-------------------------------------------------------------
A-------------------------------------------------------------
E-------------------------------------------------------------
[ Tab from: http://www.guitartabs.cc/tabs/m/mercy_me/i_can_only_imagine_tab.html ]
* listen to see about when these notes are played - they are played 
much faster then the rest.


   Asus2   Bsus2   C#sus2
e---0--------2--------4---
b---2--------4--------6---
g---2--------4--------6---
D---0--------2--------4---
A---0--------2--------4---
E---x--------x--------x---


The song goes in the following order...

     Verse 1 (just piano)
     Chorus (just piano)
     Verse 2
     Chorus
     Chorus
     Ending (repeated words of "I can only imagine" and 
                     last part of verse 2)


Verse 1 and 2
  E    Asus2  E    Asus2  E    Asus2

Chorus
  [Asus2]   Bsus2   E     Asus2   Bsus2   E     Asus2   Bsus2   E

Ending
  Asus2   Bsus2   E     Asus2  Bsus2  C#sus2
  Asus2   Bsus2   C#sus2   E   Asus2  Bsus2   E
Comments