Mercy Me - House Of God Chords & Tabs

 

House Of God Chords & Tabs

Mercy Me Chords & Tabs

Version: 1 Type: Tab 0 ratings
1 star 2 stars 3 stars 4 stars 5 stars
comments

House Of God Tab

Mercyme: House of God
Tabbed by: Shane Cassell
Tuning: Standerd E

      Intro:
e/-------------------------------------------------------|
B/-------------------------------------------------------|
G/-0~~~~~~~~-0-0------0-0------0-0------0-0--------------|
D/----------2-2-2------2-2------2-2------2-2-------------|
A/---------------4~5~-----4~5~-----4~5~-----4~5~---------|
E/-------------------0--------0--------0-----------------|
[ Tab from: http://www.guitartabs.cc/tabs/m/mercy_me/house_of_god_tab.html ]
On the the verse according to the best that my ears can tell,
there is no guitar.

       Chorus:
e/---------------------------------------------------------|
B/---------------------------------------------------------|
G/-----------------------0-0-------------------------------|
D/-22222222-4444-5555-222-2-222----------------------------|
A/-22222222-4444-5555-22-----22-4444-5555-4444-222222222---|
E/-00000000-2222-3333-00-----00-2222-3333-2222-000000000---|

   Play the chorus again and if you want to for the verses you can play a
   very muffled chorus.
Comments