Mercy Drive - Burn In My Light Chords & Tabs

 

Burn In My Light Chords & Tabs

Mercy Drive Chords & Tabs

Version: 1 Type: Tab 0 ratings
1 star 2 stars 3 stars 4 stars 5 stars
comments

Burn In My Light Tab

ok this band is randy orton's tribute band from wwe. this is his theme song and i've
listened to it for a long time and this is what i've got. its 100% correct.

drop Db tuning

intro:

eb----------------------------------------------------------------|
bb----------------------------------------------------------------|
gb----------------------------------------------------------------|
Db------------------------------5-------------------------------7-|
Ab------5--3-----------------5--3------------5--3---------------5-|
Db-0-3-------5--0----0-3----------------0-3--------5--0---0-3-----|

play the same for the heavy part but change to power chords

chorus:
[ Tab from: http://www.guitartabs.cc/tabs/m/mercy_drive/burn_in_my_light_tab.html ]
eb-----------------------------------------------------------------------------------|
bb-----------------------------------------------------------------------------------|
gb-----------------------------------------------------------------------------------|
Db-------------3----------------------------3----------------------------------------|
Ab-0-----------1---------3---------0--------1-------3-------5-------5---------1------|
Db-0---------------------3----5----0----------------3----------5-------3------1------|

verse: play the same for the backround as the intro 3x

1st solo

eb--s-12-----12--10---------------------------12------12---10----------------------|
bb--------------------10------------10^-----------------------------10-------------|
gb---------------------------12----------------------------------------------------|
Db---------------------------------------------------------------------------------|
Ab---------------------------------------------------------------------------------|
Db---------------------------------------------------------------------------------|

verse:

eb-----------------------------------------------------------------------------------|
bb-----------------------------------------------------------------------------------|
gb-----------------------------------------------------------------------------------|
Db-------------------------------------------------------------------5---------------|
Ab-5-----3------0-0-0-0---0-0-0-0---0-0-0-0--0-0-0-0----5----3-----3-----------------|
Db-5-----3------0-0-0-0---0-0-0-0---0-0-0-0--0-0-0-0----5----3-----------------------|


the rest of the stuff is repetitive. good song c ya
Comments