Mercury Rev - Young Mans Stride Chords & Tabs

 

Young Mans Stride Chords & Tabs

Mercury Rev Chords & Tabs

Version: 1 Type: Bass Tab 0 ratings
1 star 2 stars 3 stars 4 stars 5 stars
comments

Young Mans Stride Bass Tab

VERSE/INTRO
G-|--------------------------------
D-|--------5------------------5----
A-|-----7-----7---------5--7-----7-
E-|-0------------0--0--------------

G-|--------------------------------
D-|--------5------------------5----
A-|-----7-----7---------5--7-------
E-|-0------------0--0--------------

G-|--------------------------------
D-|--------5------------------5----
A-|-----------7---------5--7-----7-
E-|-0-0-0---------0--0-------------

G-|--------------------------------
D-|--------5------------------5----
A-|-----7-----7---------5--7-------
E-|-0------------0--0--------------

CHORUS
[ Tab from: http://www.guitartabs.cc/tabs/m/mercury_rev/young_mans_stride_btab.html ]
G-|-----------------------------
D-|----------------0-0-0-0-0-0-0
A-|-----------------------------
E-|-0-0--0---0--0---------------

G-|-----------------------------
D-|----------------0-0-0-0-0-0-0
A-|-----------------------------
E-|-0-0--0---0--0---------------

G-|-----------------------------
D-|----------------0-0-0-0-0-0-0
A-|-----------------------------
E-|-0-0--0---0--0---------------

G-|-----------------------------
D-|----------------0-0-0-0-0-0-0
A-|-----------------------------
E-|-0-0--0---0--0---------------

DONT KNOW THE ORDER OFF THE TOP OF MY HEAD, BUT IT DOESNT TAKE A GENIUS!
Comments