Mercury Rev - Lincolns Eyes A Cruel Black Dragon Lurks Chords & Tabs

 

Lincolns Eyes A Cruel Black Dragon Lurks Chords & Tabs

Mercury Rev Chords & Tabs

Version: 1 Type: Tab 0 ratings
1 star 2 stars 3 stars 4 stars 5 stars
comments

Lincolns Eyes A Cruel Black Dragon Lurks Tab

Intro and all song
       -4--------------------4------------4----|
       -5--------------------4------------4----|
       -6--------------------6------------5----|
       -6--------------------6------------6----|
       -4--------------------4------------6----|
       -----------------------------------4----|
what explodes like a fractal pops like a lite bulb

-2--------------------2--------2------|
-3--------------------2--------2------|
-4--------------------4--------2------|
-4--------------------4--------4------|
-2--------------------2--------4------|
-------------------------------2------|
looks really awful at 4 in the morning
[ Tab from: http://www.guitartabs.cc/tabs/m/mercury_rev/lincolns_eyes_a_cruel_black_dragon_lurks_tab.html ]
-4---------------------------------------4-----|
-5---------------------------------------4-----|
-6---------------------------------------6-----|
-6---------------------------------------6-----|
-4---------------------------------------4-----|
-----------------------------------------------|
Moves with a dead stare coils `round yer ankles

-4--------------------------5---------------------|
-4--------------------------5---------------------|
-5--------------------------6---------------------|
-6--------------------------7---------------------|
-6--------------------------7---------------------|
-4--------------------------5---------------------|
Fangs long as neckties an' strikes without warning...

one of my favourites mercury rev's song
Comments