Mercury Rev - Goddess On A Hiway Chords & Tabs

 

Goddess On A Hiway Chords & Tabs

Mercury Rev Chords & Tabs

Version: 1 Type: Bass Tab 0 ratings
1 star 2 stars 3 stars 4 stars 5 stars
comments

Goddess On A Hiway Bass Tab

   
Mercury Rev - Goddess On A Hiway

Intro:

G|--------------------------------------|
D|--------------------------------------|
A|-/12~~11-9-7-9---------/12-11-9-7-9---|
E|---------------9-7-9-5----------------|

Verse 1 (X2)
G|-----------------------------------|
D|-----------------------------------|
A|-99-9-11-1212-12-14-77-7899--------|
E|-----------------------------------|

Chorus:                           (x2)
G|-----------------------------------|
D|-----------------------------------|
A|-9-999-999-999-99-7-777-777-777-77-|
E|-----------------------------------|

G|-----------------------------------|
D|-----------------------------------|
A|-9-999-99-7-777-77-----------------|
E|-------------------7-777-77-5-555--|
[ Tab from: http://www.guitartabs.cc/tabs/m/mercury_rev/goddess_on_a_hiway_btab.html ]
Verse 2:                          (x2)
G|-----------------------------------|
D|-----------------------------------|
A|-99-9-11-1212-12-14-77-789-12-9-12-|
E|-----------------------------------|
                                  (x2)
G|-----------------------------------|
D|-----------------------------------|
A|-99-9-11-1212-12-14-77-7899--------|
E|-----------------------------------|

(Chorus )

Verse 3:                          (x4)
G|-----------------------------------|
D|-----------------------------------|
A|-99-9-11-1212-12-14-77-789-12-9-12-|
E|-----------------------------------|
                                  (x2)
G|-----------------------------------|
D|-----------------------------------|
A|-99--rr--1212--rr--77--rr--99------|
E|-----------------------------------|

( Chorus )

Verse 4:                          (x2)
G|-----------------------------------|
D|-----------------------------------|
A|-99-9-11-1212-12-14-77-789-12-9-12-|
E|-----------------------------------|

Outro (until the end):
G|-----------------------------------|
D|-----------------------------------|
A|-9-999-999-999-99-7-777-777-777-77-|
E|-----------------------------------|

(it's my first tab, please be patient)
Comments