Mental As Anything - Live It Up Chords & Tabs

 

Live It Up Chords & Tabs

Mental As Anything Chords & Tabs

Version: 1 Type: Bass Tab

Live It Up Bass Tab

   
Main riff/verse

G-00--00--00--00----------------------------------------------------------------------|
D---20--20--20--20220-220-220-220-00--00--00--00--------------------------------------|
A--------------------2---2---2---2--20--20--20--20330-330-330-330-  x2----------------|
E----------------------------------------------------3---3---3---3--------------------|

Chorus

G-00---0------------------00---0------------------00--00--00--00---|
D---20--202-20-0000-0-------20--202-20-0000-0-------20--20--20--20-|
A--------------------3-20--------------------3-20------------------|
E------------------------3-----------------------3-----------------|

Main riff/verse

G-00--00--00--00---------------------------------------------------|
D---20--20--20--20220-220-220-220-00--00--00--00-------------------|
A--------------------2---2---2---2--20--20--20--20330-330-330-330--|
E----------------------------------------------------3---3---3---3-|

Chorus

G-00---0------------------00---0------------------00--00--00--00---|
D---20--202-20-0000-0-------20--202-20-0000-0-------20--20--20--20-|
A--------------------3-20--------------------3-20------------------|
E------------------------3-----------------------3-----------------|

Bridge

G------------------------------------------------------------------|
D------------------------------------------------------------------|
A-----------------222222222222222233333333333333333333333333333333-|
E-3333333333333333-------------------------------------------------|
[ Tab from: http://www.guitartabs.cc/tabs/m/mental_as_anything/live_it_up_btab.html ]
G-----------------|
D-----------------|
A-5555555555555555
E-----------------

Main riff/verse

G-00--00--00--00----------------------------------------------------------------------|
D---20--20--20--20220-220-220-220-00--00--00--00--------------------------------------|
A--------------------2---2---2---2--20--20--20--20330-330-330-330-  x4----------------|
E----------------------------------------------------3---3---3---3--------------------|

Chorus

G-00---0------------------00---0-------------------|
D---20--202-20-0000-0-------20--202-20-0000-0------|
A--------------------3-20--------------------3-20--|
E------------------------3-----------------------3-|

Main riff/verse

G-00--00--00--00---------------------------------------------------|
D---20--20--20--20220-220-220-220-00--00--00--00-------------------|
A--------------------2---2---2---2--20--20--20--20330-330-330-330--|
E----------------------------------------------------3---3---3---3-|

Main riff/verse

G-00--00--00--00--------------------------------------------------|
D---20--20--20--20220-220-220-220-00--00--00--00------------------|
A--------------------2---2---2---2--20--20--20--203-2-------------|
E-----------------------------------------------------0-----------|

Chorus

G-00---0------------------00---0-------------------|
D---20--202-20-0000-0-------20--202-20-0000-0------|
A--------------------3-20--------------------3-20--|  x2 then fade out
E------------------------3-----------------------3-|

Wookiee

m_gunton@hotmail.com