Mendola, Travis - Just Something For You Chords & Tabs

 

Just Something For You Chords & Tabs

Mendola, Travis Chords & Tabs

Version: 1 Type: Tab 0 ratings
1 star 2 stars 3 stars 4 stars 5 stars
comments

Just Something For You Tab

This is just a little song I put together that’s not that great, but hey, it’s my first time writing tab, so I’ll just see how it comes out.  Now, remember, this is NOT anything but my own work, so don’t mistake it for a professional piece.  Now, if you notice this patter already, then disregard this statement, but I’ll just tell you how I play this song.  All I really did was, I took an A minor and took it apart, using only the high E, the B, and the G strings.  then I took apart an E major, using only the high E, the B, G, and the D strings.  Then I take apart some other chords I don’t know and then the song ends.  I hope that helps you understand and play this piece, now that you know my outlook and technique.  Thanks  
                                     -Travis
H=hammer on
P=hammer off
\=slide

Intro
e------0-----0----------0-----0-------------------0----------0---------0-------0----------0---------0-| 
B--------1----------------1---------------------------0---------0------------------0----------0--------| 
G--2-----------------2----------------2------------------1---------1------------------1----------1----|
D--------------------------------------------2-------------------------------2---------------------------|
A---------------------------------------------------------------------------------------------------------|
E---------------------------------------------------------------------------------------------------------|

e------0-----0----------0-----0-------------------0----------0---------0-------0----------0---------0-| 
B--------1----------------1---------------------------0---------0------------------0----------0--------| 
G--2-----------------2----------------2------------------1---------1------------------1----------1----|
D--------------------------------------------2-------------------------------2---------------------------|
A---------------------------------------------------------------------------------------------------------|
E---------------------------------------------------------------------------------------------------------|

e------------0-------------0-----------------0----------0---------0h2------------2------------2-------| 
B-------1-------------1-----------------1-----------1-------------------------3------------3-----------| 
G--2-------------2------------------2-----------2-----------2------------2------------2-----------2---|
D---------------------------------------------------------------------------------------------------------|
A---------------------------------------------------------------------------------------------------------|
E---------------------------------------------------------------------------------------------------------|

e------2-------2p0------------0----------0----------------0-----------0--------0----------0---------0| 
B--3-----------------------1----------1---------------1------------1--------------------0---------0---| 
G---------2------------2----------2--------------2-------------2----------2---------0--------0--------|
D---------------------------------------------------------------------------------------------------------|
A---------------------------------------------------------------------------------------------------------|
E---------------------------------------------------------------------------------------------------------|
[ Tab from: http://www.guitartabs.cc/tabs/m/mendola_travis/just_something_for_you_tab.html ]
e-------0---------0----------0-------------------0----------0-------------0----------0-------0---------| 
B-------------0----------0-------------------0----------0-------------0----------0-------------------0| 
G--0------1---------2----------1h2p1--2----------2-------------0----------0----------0--------2----|
D---------------------------------------------------------------------------------------------------------|
A---------------------------------------------------------------------------------------------------------|
E---------------------------------------------------------------------------------------------------------|

e--0-----------0--------------0-------0-----0-----------0--------0-------------0--------0-----0-------| 
B----------0--------------0-------0-----------------0---------0-------------0--------0---------------0| 
G------2--------------1--------1--------1------2----------2------------0---------0--------0------4---|
D---------------------------------------------------------------------------------------------------------|
A---------------------------------------------------------------------------------------------------------|
E---------------------------------------------------------------------------------------------------------|
                          Intro Ends
e--0----------0-----0-|------0-------0-------0------0-------0--------0------0-------0--------0------0| 
B---------0------------|--------0-------0---------------0-------0---------------0-------0--------------| 
G-----2---------0-----|-----------0-------0----------------0-------0---------------0-------0----------|
D-----------------------|-2-----------------------2------------------------2------------------------2---|
A-----------------------|---------------------------------------------------------------------------------|
E-----------------------|---------------------------------------------------------------------------------|

e---------0--------0---------0---------0-----0----------0--------0---------------0------0------0----0| 
B--0--------0------------------------------------------------------------------------0------0-----------| 
G-----0--------0--------0---------0-----------------0--------0-----------------------0------0---------|
D---------------------0---------0--------0--------5--------4--------4h5p4--2--------------------2---|
A---------------------------------------------------------------------------------------------------------|
E---------------------------------------------------------------------------------------------------------|

e---------0--------0-------0---------0-----0----------0----------0-----------0-------0------0-----0--| 
B--0--------0---------------------------------------------------------------------0------0--------------| 
G-----0--------0-------0--------0-----------------0---------0---------------------0------0------------|
D--------------------0--------0---------0------4---------5----------4\2--2---------------------2-----|
A----------------------------------------------------------------------^---------------------------------|
E----------------------------------------------------------------------^----------------------------------|
                                                                             wait 1/2 beat before sliding
e--------0------0------0-----0---0-------0-------0--------0-----0-----0---0----0------0---0-----0--| 
B--0------0---------------------------------------------------0-----0---------0-----0----------0-----0| 
G----0------0------0------0------------------------------------0-----0---------0-----0----------0----|
D-----------------0------0-----0------0-------0---------------------------2----------------2----------|
A------------------------------------2-------0----------------------------------------------------------|
E-----------------------------------------------------3--0-----------------------------------------------|

e-----0----------0----------------------------------------------------------------------------------------| 
B------------0--0----------------------------------------------------------------------------------------| 
G--0------0----0----------------------------------------------------------------------------------------|
D-------2------2-----------------------------------------------------------------------------------------|
A---------------------------------------------------------------------------------------------------------|
E---------------------------------------------------------------------------------------------------------|
Comments