Men Women And Children - Messy Chords & Tabs

 

Messy Chords & Tabs

Men Women And Children Chords & Tabs

Version: 1 Type: Tab

Messy Tab

   
Messy - Men Women and Children


Tabbed by: andy gush
Email:

Tuning: eadgbe


listen to the song for the rythem

Intro
e|-----------------------------------------------------------------------------|
B|--12---12------12-12-12-12-----15--12----------------------------------------|
G|---9----9------9--9---9---9---------9----------------------------------------|
D|-----------------------------------------------------------------------------|
A|-----------------------------------------------------------------------------|
E|-----------------------------------------------------------------------------|

Or play the intro

e|---7---7------7-7-7-7---10---7-----------------------------------------------|
B|---5---5------5-5-5-5----------5---------------------------------------------|
G|-----------------------------------------------------------------------------|
D|-----------------------------------------------------------------------------|
A|-----------------------------------------------------------------------------|
E|-----------------------------------------------------------------------------|
_____________________________________________________________________

Guitar 1
e|-----------------------------------------------------------------------------|
B|-----------------------------------------------------------------------------|
G|---------------------5-------------------------------------------------------|
D|--2--2-----5--2---------2---5---2-----------5----2---------2-----------------|
A|------------------------------------------3-3----------------------3 3333----|
E|-----------------------------------------------------------------------------|
^ or play that one up at the 7th fret up one string

[ Tab from: http://www.guitartabs.cc/tabs/m/men_women_and_children/messy_tab.html ]
Gutiar 2
e|-------------------------------------------------------------------12121212-----|
B|-------------------------------------------------------------------12121212-----|
G|-------------------------------------------------------------------9 9 9 9------|
D|--------------------------------------------------------------------------------|
A|--------------------------------------------------------------------------------|
E|--------------------------------------------------------------------------------|


Chorus
"high heeld shoes"                     "getting down"
e|---------------------------------------------------------------------------------------|
B|---------------------------------------------------------------------------------------|
G|----5-5-5-5-5-5-5-5-5-5-5-5-5-5-----2-2-2-2-2-2--5-5-5-5-5-5-5-------------------------|
D|----5-5-5-5-5-5-5-5-5-5-5-5-5-5-----2-2-2-2-2-2--5-5-5-5-5-5-5-------------------------|
A|----3-3-3-3-3-3-3-3-3-3-3-3-3-3-----0-0-0-0-0-0--0-0-0-0-0-0-0-------------------------|
E|---------------------------------------------------------------------------------------|


Solo... ugh really rough
e|-----------------------------------------------------------------------------|
B|---------------------------11------------------------------------------------|
G|--13~---13--11--13------13---11--13~-----------------------------------------|
D|-----------------------------------------------------------------------------|
A|-----------------------------------------------------------------------------|
E|-----------------------------------------------------------------------------|

e|--------------------------------------------------------------------------------------|
B|----------------11--------------15b---------------------------------------------------|
G|---13--11--13--------13--11-----------------------------------------------------------|
D|--------------------------------------------------------------------------------------|
A|--------------------------------------------------------------------------------------|
E|--------------------------------------------------------------------------------------|

not finished ...........

| /  slide up
|   slide down
| h  hammer-on
| p  pull-off
| ~  vibrato
| +  harmonic
| x  Mute note
===============================================================================