Men Oppose - Pag-ibig Ko Sa Iyoy Di Magbabago Chords & Tabs

 

Men Oppose Chords & Tabs

Version: 1 Type: Tab 0 ratings
1 star 2 stars 3 stars 4 stars 5 stars
comments

Pag-ibig Ko Sa Iyoy Di Magbabago Tab

   
Song:		Pag-ibig Ko Sa 'Yo'y Di Magbabago
Artist:		Men Oppose
Tabbed By:	Cerilo Cabacoy Jr. (Country Homes, Tagum City)


Tuning:		Standard, No Capo
Key Signature:	G Major


Comment:Here comes another tab from me (Sergs). This is for novices who want to learn plucking
	relatively easy musical pieces. This tab is for you. I hope you enjoy this one.

	I have took pains in order to come up with the guitar tab of this song because I cannot
	find one in the internet. Perhaps, nobody bothers creating or learning the tab because
	they believe this is so easy. Somehow, it is true. On the other hand, the interlude part
	is difficult to decipher. Still, you better try this one and see for yourself.

	Dedicated to Miss Arizel Gones of New Bataan. ("Your voice is like music to my ears.")


Intro:

    (G)                     (Em)                    (C)

E||--3--------------------|--0--------------------|--0--------------------|
B||--0---------3---1---0--|--0---------3---1---0--|--1---------3---1---0--|
G||--0------0-------------|--0------0-------------|--0------0-------------|
D||--0--------------------|--2--------------------|--2--------------------|
A||--2--------------------|--2--------------------|--3--------------------|
E||--3--------------------|--0--------------------|-----------------------|

  (D6)                   (G)                     (Em)

|--2-------------------|--3------3--10---8---7--|--3------3--10---8---7--|
|--0------1-0----------|--3---------------------|--5---------------------|
|--2----------2--------|--4---------------------|--4---------------------|
|--0-------------------|--5---------------------|--2---------------------|
|----------------------|--5---------------------|------------------------|
|----------------------|--3---------------------|------------------------|

  (C)                      (D6)                    (G)

|--3------3--10---8---7--|--7------8--10---------|--7-----7-----8--8-10--8-7-5-|
|--5---------------------|--7--------------------|--8-----8-----8--------------|
|--5---------------------|--7--------------------|--7-----7-----7--------------|
|--5---------------------|--7-----------------0--|-----0-----0-----------------|
|--3---------------------|-----------------------|-----------------------------|
|------------------------|-----------------------|-----------------------------|

  (G)

|--7-----7-----8--8-10--8-7-5-|
|--8-----8-----8--------------|
|--7-----7-----7--------------|
|-----0-----0-----------------|
|-----------------------------|
|-----------------------------|


Verse 1:

  (G)                    (Em)

|--7-------------------|--3-------------------|
|--8---------0---------|--5---------0---------|
|--7---------0---------|--4---------0---------|
|--5--------------0----|--2--------------2----|
|----------------------|----------------------|
|---------3------------|---------0------------|

  (C)                    (D)                    (G)

|--3-------------------|--5---------2---------|--7-------------------|
|--5---------1---------|--7-------------------|--8---------0---------|
|--5---------0---------|--7---------2---------|--7---------0---------|
|--5--------------2----|--7--------------0----|--5--------------0----|
|--3------3------------|--5------0------------|----------------------|
|----------------------|----------------------|---------3------------|

  (Em)                   (C)                     (D)

|--3-------------------|--3-----------------0--|--2------2--3--2--0-----|
|--5---------0---------|--5---------1----------|---------------------3--|
|--4---------0---------|--5---------0----------|------------------------|
|--2--------------2----|--5--------------2-----|------------------------|
|----------------------|--3------3-------------|------------------------|
|---------0------------|-----------------------|------------------------|

Refrain 1:

  (C)       (D)          (G)       (Em)         (C)

|--0----0----2----2----|--3----3----0----0----|--0-------0--2--0--------|
|--1----1----3----3----|--0----0----0----0----|--1----1-----------3--1--|
|--0----0----2----2----|--0----0----0----0----|--0----------------------|
|--2----2----0----0----|--0----0----2----2----|--2-------------------2--|
|--3----3--------------|--2----2----2----2----|--3----------------------|
|----------------------|--3----3----0----0----|-------------------------|

  (G)                    (C)         (D)           (C)          (D)

|--3-------------------|--0------0--2---2-3-2-0--|--0------0--2---2-3-2-0--|
|--3----------------0--|--1----------------------|--1----------------------|
|--0-------------------|--0----------------------|--0----------------------|
|---------4--2---------|--2----------------------|--2----------------------|
|----------------------|--3----------------------|--3----------------------|
|--3-------------------|-------------------------|-------------------------|

  (C)          (D)          (C)       (D)          (D)

|--0------0--2---2-3-2-0--|--0------0--2------3--|--2---------|
|--1----------------------|--1---------3---------|--3---------|
|--0----------------------|--0---------2---------|--2---------|
|--2----------------------|--2---------0---------|--0---------|
|--3----------------------|--3-------------------|---------3--|
|-------------------------|----------------------|------------|

         (C)

|-----------------------|
|-----------------------|
|-----------------------|
|--0---0-0-----0--------|
|-----------3-----------|
|-----------------------|

Chorus 1:

  (G)                     (Em)
[ Tab from: http://www.guitartabs.cc/tabs/m/men_oppose/pag_ibig_ko_sa_iyoy_di_magbabago_tab.html ]
|--3----3----------------|--0----0-----------------|
|--0----0------1--1s-3---|--0-------0--1--1s--3----|
|--0----0----------------|--0----------------------|
|--0----0----------------|--2----------------------|
|--2----2----------------|--2----------------------|
|--3----3----------------|--0----------------------|

  (C)

|--0--0--2------0--------|---------------------0--|----------0-----0--2--0--|
|--1---------------3--1--|--0---------------------|-------1-----3-----------|
|--0---------------------|-----2--0---------------|-------------------------|
|--2---------------------|-----------4--2---------|-------------------------|
|--3---------------------|------------------------|--3----------------------|
|------------------------|------------------------|-------------------------|

                            (C)        (D)

|-------------------------|--0-------0--2----2----|
|--3--1--0----------------|--1----1-----3----3----|
|-----------2--0----------|--0----------2----2----|
|-----------------4--2----|--2----------0----0----|
|-------------------------|--3--------------------|
|-------------------------|-----------------------|

Intro Before Interlude:

  (G)

|--3---------3---------|--7------8-----|
|--0------3---------3--|-------3-------|
|--0-------------------|---------------|
|--0-------------------|---------------|
|----------------------|---------------|
|--3-------------------|---------------|

Interlude:


------------|-----------7-5-7--5--3-2---|---------7-5-7--5--3-2---|
------------|-----------8-7-8--7--5-3---|--0------8-7-8--7--5-3---|
----------0-|--2s--4--------------------|--0----------------------|
------0-2---|---------------------------|-------------------------|
----3-------|---------------------------|-------------------------|
------------|---------------------------|-------------------------|

|--0-------0--------------|-------------------------0-2-3-5-|
|--1----3-----3-----------|--0-0s-1-----0-----0-1-3---------|
|------------------0s-2---|----------2----2-0---------------|
|-------------------------|---------------------------------|
|-------------------------|---------------------------------|
|-------------------------|---------------------------------|

|----------------15-14-15--14--12-10--|-------------15-14-15--14--12-10--|
|--10s--12----12-12----12-------------|--12------12-12----12-------------|
|-------------------14-----14--12-11--|--12------------14-----14--12-11--|
|-------------------------------------|----------------------------------|
|-------------------------------------|----------------------------------|
|-------------------------------------|----------------------------------|

|--10s-12----------------------|--5s-12-14s-12-8s-10-8-10------3--5--|
|------------------------------|----------------------------3--------|
|-----------0-0--2-0--0s--2----|-------------------------------------|
|------------------------------|-------------------------------------|
|------------------------------|-------------------------------------|
|------------------------------|-------------------------------------|

Intro Before Verse 2:


|--7-----7-----8--8-10--8-7-5-|--7-----7-----8--8-10--8-7-5-|
|--8-----8-----8--------------|--8-----8-----8--------------|
|--7-----7-----7--------------|--7-----7-----7--------------|
|-----0-----0-----------------|-----0-----0-----------------|
|-----------------------------|-----------------------------|
|-----------------------------|-----------------------------|

(Verse 2)

n.b. [Verse 2 has the same pattern as Verse 1.]


(Refrain 2)

n.b. [Refrain 2 has the same pattern as Refrain 1.]


(Chorus 2)

n.b. [Chorus 2 has the same pattern as Chorus 1.]

Adlib Before Final Chorus:


|--3---------3-----3-----|
|--0------3-----3-----3--|
|--0---------------------|
|--0---------------------|
|------------------------|
|--3---------------------|

Final Chorus:

n.b. [Final Chorus has the same pattern as Chorus 1.]

Outro:

|--3-------------------|--0----------2------|--5s--7--7----5s--7--3----||
|--0-------------------|--1-------0--3------|--------------------------||
|--0---------0----0----|--0----0-----2------|--------------------------||
|--0------0------------|--2----------0------|--------------------------||
|--2-------------------|--3-----------------|--------------------------||
|--3-------------------|--------------------|--------------------------||


Legend:

s  = slide

Double bar at the end of the score means the piece is finished.


---------------------------------------------------------------------------
Song Lyrics with chords follows
---------------------------------------------------------------------------

Verse 1:
    G           Em
Kaytagal kitang hinanap hanap
   C            D
Hinihintay at pinapangarap
 G                    Em
Ngayong nakita Kay di ako papayag
  C                D7
Na sa piling ko'y mawalay ka


Refrain 1:
C        D      G          Em
Bawat naisin mo'y ibibigay sa'yo
C        D      G          Em
Lahat ng gusto mo ay susundin ko
C        D     C  D
Huwag sanang magbabago
C        D         G          D7
Puso't isipan ko'y para lang sa iyo


Chorus 1:
G                         Em
Pag-ibig ko sa iyo'y di magbabago
C                         D
Habang tumamtagal lalong nag-iibayo
G                       Em
Buong buhay ko'y iaalay sa iyo
C                     D7---INTRO
Kapag nawala ka'y wal na rin ako


Verse 2:
    G                 Em
Ang akala ko'y ikay pangarap lamang
    C                 D
Hindi makikita at hindi masisilayan
    G                 Em
Ngayon alam ko na ikaw ay tunay
    C                 D7
Aking mamahalin t di paluluhain

---------------------------------------------------------------------------------------
                                      Nothing else follows
---------------------------------------------------------------------------------------
Comments