Melvins - Zodiac Chords & Tabs

 

Zodiac Chords & Tabs

Melvins Chords & Tabs

Version: 1 Type: Tab 0 ratings
1 star 2 stars 3 stars 4 stars 5 stars
comments

Zodiac Tab

Melvins - Zodiac
Tuning:  Normal

e|-----------------------------------------------------|
b|-----------------------------------------------------|
G|-------------------------------------------------b8~~|
D|-----------------------------------------------9-----|
A|-7-7-7-7-7-7-7-7-7-7-7-7-7-7-7-7-7-7-7-7-7-7-7-------|
E|-0-0-0-0-0-0-0-0-0-0-0-0-0-0-0-0-0-0-0-0-0-0-0-------|

e|----------------------------------------------------------------|
b|----------------------------------------------------------------|
G|----------------------------------------------------------------|
D|------------------------------------------------8-7-2~~~~3-3--3-|
A|-7-7-7-7-7-7-7-7-7-7-7-7-7-7-7-7-7-7-7-7-7-7-7--8-7-2~~~~3-3--3-|
E|-0-0-0-0-0-0-0-0-0-0-0-0-0-0-0-0-0-0-0-0-0-0-0--6-5-0~~~~1-1--1-|

e|--------------------------------|
b|--------------------------------|
G|--------------------------------|
D|-2--2-2-2-2-2-2-2-2-2-2-2-----2-|
A|-2--2-2-2-2-2-2-2-2-2-2-2-0h2---|
E|-0--0-0-0-0-0-0-0-0-0-0-0-------|
      x x x x x x x x x x x

e|-------------------------|
b|-------------------------|
G|-------------------------|
D|-2--2-2-2-2-2-2-2-8-8--8-|
A|-2--2-2-2-2-2-2-2-8-8--8-|
E|-0--0-0-0-0-0-0-0-6-6--6-|
      x x x x x x x
[ Tab from: http://www.guitartabs.cc/tabs/m/melvins/zodiac_tab.html ]
e|----------------------------------------------------|
b|----------------------------------------------------|
G|----------------------------------------------------|
D|------------------------------------------------8-7-|
A|-7-7-7-7-7-7-7-7-7-7-7-7-7-7-7-7-7-7-7-7-7-7-7--8-7-|
E|-0-0-0-0-0-0-0-0-0-0-0-0-0-0-0-0-0-0-0-0-0-0-0--6-5-|

e|---------------------------------------|
b|---------------------------------------|
G|---------------------------------------|
D|-2~~2~~~~2~~~~2~~~~2~~~~2~~~~2~~~~2~~~~|
A|-2~~2~~~~2~~~~2~~~~2~~~~2~~~~2~~~~2~~~~|
E|-0~~0~~~~0~~~~0~~~~0~~~~0~~~~0~~~~0~~~~|

e|---------------|
b|---------------|
G|---------------|
D|-6-3~~6-3~~2-2-|
A|-6-3~~6-3~~2-2-|
E|-4-1~~4-1~~0-0-|
   x    x

e|--------------------------------------------|
b|--------------------------------------------|
G|--------------------------------------------|
D|-6-6-6-6-3-3-3-3-5-5-2-2-5-5-5-5-2--3-2-2-x-|
A|-6-6-6-6-3-3-3-3-5-5-2-2-5-5-5-5-2--3-2-2-x-|
E|--------------------------------------------|

e|---------------------|
b|---------------------|
G|---------------------|
D|-6~~~6~~6-6-6-6-6-7~~|
A|-6~~~6~~6-6-6-6-6-7~~|
E|---------------------|

e|--------------|
b|--------------|
G|--------------|
D|-6-3-6-3--2-2-|
A|-6-3-6-3--2-2-|
E|--------------|
   x   x
Comments