Melvins - Way Of The World Chords & Tabs

 

Way Of The World Chords & Tabs

Melvins Chords & Tabs

Version: 1 Type: Bass Tab 0 ratings
1 star 2 stars 3 stars 4 stars 5 stars
comments

Way Of The World Bass Tab

   
Melvins
"Way of the World" (bass)
(Flipper cover)

intro
g -----------------|
d -5-5-5-5-5-5-5-5-|
a -5-5-5-5-5-5-5-5-| etc
e -----------------|
[ Tab from: http://www.guitartabs.cc/tabs/m/melvins/way_of_the_world_btab.html ]
riff
g ----------------------------------------------------------------|
d --------------------------------5-5-5-5-5-5-5-5-7-7-7-7-7-7-7-7-|
a ----------------5-5-5-5-5-5-5-5---------------------------------|
e 5-5-5-5-5-5-5-5-------------------------------------------------|

g -----------------|
d -----------------|
a -8-8-8-8-8-8-7-5-|
e -----------------|
Comments