Melvins - Vile Chords & Tabs

 

Vile Chords & Tabs

Melvins Chords & Tabs

Version: 1 Type: Tab 0 ratings
1 star 2 stars 3 stars 4 stars 5 stars
comments

Vile Tab

   
Artist - Melvins
Song - Vile
Album - Ozma/Gluey Porch Treatments
Tabbed by an17nin17

Tuning - low to high - D, A, D, G, B, E

Intro - 

|---|
|---|
|---|
|-0-| This is some very quiet feedback
|-0-|
|-0-|

|---------------------------------------------------------------|
|---------------------------------------------------------------|
|---------------------------------------------------------------|
|-3^~~-0~~-0-0-3^~~-0-3^~~-0~~-6~~-5~~-0-0-3^~~-0-0-6~~---------| x2
|-3^~~-0~~-0-0-3^~~-0-3^~~-0~~-6~~-5~~-0-0-3^~~-0-0-6~~-6~~-5~~-|
|-3^~~-0~~-0-0-3^~~-0-3^~~-0~~-6~~-5~~-0-0-3^~~-0-0-6~~---------|
                                       PM.      PM.
                                              1         2
|-------------------------------------------|---------|-----|
|-------------------------------------------|---------|-----|
|-------------------------------------------|---------|-----|
|-0-0-0-0-----3~~-0-0-0-6~~-5~~-6~~-3-0-3-0-|-0-0-----|-3-0-|
|-0-0-0-0-6~~-3~~-0-0-0-6~~-5~~-6~~-3-0-3-0-|-0-0-6~~-|-3-0-|
|-0-0-0-0-----3~~-0-0-0-6~~-5~~-6~~-3-0-3-0-|-0-0-----|-3-0-|
  PM.....                                     PM.

Verse - 
[ Tab from: http://www.guitartabs.cc/tabs/m/melvins/vile_tab.html ]
|---------|
|---------|
|---------|
|-0-0-0-0-| repeat a lot of times
|-0-0-0-0-|
|-0-0-0-0-|
  PM.....

This section comes in a few times - 

|-----|
|-----|
|-----|
|-0~~-|
|-0~~-|
|-0~~-|
 w/bar

After a couple of those this riff comes in - 

|----------------------------------------------------------------|
|----------------------------------------------------------------|
|----------------------------------------------------------------|
|----------------------------------------------------------------|
|-6^---6^----------6~~---------6~~----------6~~---------6~~------|
|----0----3^-0-0-0-----5~~-6~~-----3^-0-0-0-----5~~-6~~-----3^-0-|

|---------|
|---------|
|---------|
|-0-0-0-0-| repeat a lot of times
|-0-0-0-0-|
|-0-0-0-0-|
  PM.....

|---------------|
|---------------|
|---------------|
|---------------| 
|-6-6-6-6-6-4-5-|
|---------------|

|---------|
|---------|
|---------|
|-0-0-0-0-| repeat a lot of times
|-0-0-0-0-|
|-0-0-0-0-|
  PM.....

|---------------|
|---------------|
|---------------|
|---------------| 
|-6-6-6-6-6-4-5-|
|---------------|

And thats it.  A good song that no one decided to tab.

Who the hell put my "The Imploding Voice" tab on www.tabcrawler.com? I 
didn't thats for sure, but at least he/she still put my name on it.

If you have any comments on this tab or any others that I have posted out 
contact me at TheFlameY2K@hotmail.com
Comments