Melvins - Up The Dumper Chords & Tabs

 

Up The Dumper Chords & Tabs

Melvins Chords & Tabs

Version: 1 Type: Tab 0 ratings
1 star 2 stars 3 stars 4 stars 5 stars
comments

Up The Dumper Tab

Melvins - Up The Dumper
                                                         
prick@PunchMyVagina.com, ben.nield@gmail.com


for most of this song the guitar and bass are playing in the same key 
so it sounds just as good on bass


standard tuning

intro
e|-----------------------------------------------------------------------|
b|-----------------------------------------------------------------------|
g|-----------------------------------------------------------------------|
d|-----------------------------------------------------------------------|
A|---7-7---0-7-7---0-7-7---0-7-7---0-7-7---0-7-7---0-7-7---0-7-7---0-7---|
E|-----------------------------------------------------------------------|


verse x2
e|-----------------|-----------------|-----------------|-----------------|
b|-----------------|-----------------|-----------------|-----------------|
g|-----------------|-----------------|-----------------|-----------------|
d|-----------------|-----------------|-----------------|-----------------|
A|-5---5---5---5---|-5---5---5---5-0-|-----------------|---------------0-|
E|-----------------|-----------------|-7---7---7---7-5-|-5---5---5---5---|
[ Tab from: http://www.guitartabs.cc/tabs/m/melvins/up_the_dumper_tab.html ]
e|-----------------|-----------------|-----------------|-----------------|
b|-----------------|-----------------|-----------------|-----------------|
g|-----------------|-----------------|-----------------|-----------------|
d|-----------------|-----------------|-----------------|-----------------|
A|-5---5---5---5---|-5---5---5---5-0-|-----------------|---------------6-|
E|-----------------|-----------------|-7---7---7---7-5-|-5---5---5---5---|

e|-----------------------------------------------------------------------|
b|-----------------------------------------------------------------------|
g|-----------------------------------------------------------------------|
d|-----------------------------------------------------------------------|
A|-----------------------------------------------------------------------|
E|-7-7---0-7-7---0-7-7---0-7-7-5-0-3-3-----3---0-3-0-5---5-5-0-5---0-5-0-|

chorus  
e|-----------------------------------------------------------------------|
b|-----------------------------------------------------------------------|
g|-----------------------------------------------------------------------|
d|-----------------------------------------------------------------------|
A|-----------------------------------------------------------------------|
E|-2-2-0-2---0-2-0-3-3-0-3----0-5-0---5------5------5-----5------5---5---|

repeat verse + chorus

fill
e|-----------------------------------------------------------------------|
b|-----------------------------------------------------------------------|
g|-----------------------------------------------------------------------|
d|-----------------------------------------------------------------------|
A|-------2-------------------------------2-------------------------------|
E|-3-2-------3-5-5-5-5-(5)-5-5-5---3-2-3---3-2-0-2-3-2-5--5--(5)--5--5---|

structure:
intro, verse, chorus, intro, verse, chorus, fill, intro.
Comments