Melvins - Theme Chords & Tabs

 

Theme Chords & Tabs

Melvins Chords & Tabs

Version: 1 Type: Tab 0 ratings
1 star 2 stars 3 stars 4 stars 5 stars
comments

Theme Tab

Melvins - "Theme"
(originally by Clown Alley)


Riff 1 

e-----------------------------|
b---6-----6--------6----------|
g-5---5/4---4--4/5---5/4~~----|
d-----------------------------| Do it twice.
a-----------------------------|
e-----------------------------|


Riff 2

e----------------------|
b----------------------|
g----------------------|
d----------------------|
a-2-2---2-5-2--2-2-5~--| Play this once, then Riff 1 and then Riff 2.
e-0-0---0-3-0--0-0-3~--|


Riff 3
[ Tab from: http://www.guitartabs.cc/tabs/m/melvins/theme_tab.html ]
e----------------------------------|
b----------------------------------|
g-6/7--7--7-7/6--6-6-6-6/7--7-7/6--|
d-6/7--7--7-7/6--6-6-6-6/7--7-7/6--| Play this four times.
a-4/5--5--5-5/4--4-4-4-4/5--5-5/4--|
e----------------------------------|


Riff 4

e-----------------------------------------------------------|
b----------/6-6--------/9-9----------/11-11---------/13-13--|
g-----------------------------------------------------------|
d-----------------------------------------------------------|
a-2-5-2-2-------2-5-2-2------2-5-2-2--------2-5-2-2---------|
e-0-3-0-0-------0-3-0-0------0-3-0-0--------0-3-0-0---------|


Play Riff 1 again, then this:

e-----
b-----
g-----
d-2---
a-2--- Let ring and feedback.
e-0--- 
Comments