Melvins - Sky Pup Chords & Tabs

 

Sky Pup Chords & Tabs

Melvins Chords & Tabs

Version: 1 Type: Bass Tab 0 ratings
1 star 2 stars 3 stars 4 stars 5 stars
comments

Sky Pup Bass Tab

Sky Pup 


The Intro/Chorus
G ---------|-------------|---------|-------------|
D ---------|-------------|---------|-------------|
A ---------|-------------|---------|-------------|
E 3-32-343-|2-22-0-2-3-20|3-32-343-|2-22-0-2-3-20|
 

G ---------|-------------|---------|-------------|
D ---------|-------------|---------|-------------|
A ---------|-------------|---------|-------------|
E 3-32-343-|2-22-0-2-3-20|3-32-343-|0------------|


Verse
G ---------------|----------------|
D -7-75----------|----------------|
A -----76-5-454--|-------2-3-45585|
E 5------------54|3-3-323---------|

[ Tab from: http://www.guitartabs.cc/tabs/m/melvins/sky_pup_btab.html ]
G ---------------|----------------|
D -75------------|------------54--|
A ---7654-54-----|-------2-3-4--54|
E 5---------54545|3-3-323---------| 

G -------79-797--|----------------|
D -75-579------97|----------------|
A ---7-----------|-------2-3-4-585|
E 5--------------|3-3-323---------|

G ---------------|----------------|
D -75------------|------------54--|
A ---7654-54-----|-------2-3-4--54|
E 5---------54545|3-3-323---------|


Bridge Part 1 

G --------------------|
D --------------------|
A --7---7---7---7---77|
E 00-000-000-000-000--|


Bridge Part 2
 
G---------------|
D--------------5|
A -7------5-6-7-|
E 0-5-6-7-------|


Arrangement:

Intro
Verse 
Chorus
Verse
Chorus
Bridge Part 1 (4x)
Bridge Part 2 played straight (4x)
Bridge Part 2 a little fancier (4x)
Chorus
Verse 
Chorus (Hold the last E)
Comments