Melvins - Manky Chords & Tabs

 

Manky Chords & Tabs

Melvins Chords & Tabs

Version: 1 Type: Tab 0 ratings
1 star 2 stars 3 stars 4 stars 5 stars
comments

Manky Tab

Manky by the Melvins on the Maggot album

This song is fairly simple if you understand the emphasis and expression of the song.
This tab is original and my work alone.
E-mail me if you'd like to help work on tabs for this album. ZiggyandGiggy@yahoo.com


Main riff:
E|------------------------------------------------------------|
B|------------------------------------------------------------|
G|------------------------------------------------------------|
D|--0-00-0-00-0-0-0-00--0-00-0-00-0-1-1-1---------------------|
A|--0-00-0-00-0-0-0-00--0-00-0-00-0-1-1-1---------------------|
D|--0-00-0-00-0-0-0-00--0-00-0-00-0-1-1-1---------------------|
PM    ..   ..   . . ..    ..   ..

Depending on if you are playing with 2 guitarists' then have one do the main riff
under the the neat little solo or whatever it is.
[ Tab from: http://www.guitartabs.cc/tabs/m/melvins/manky_tab.html ]
E|-----------------16-Push-this-up-really-hard--16-16-14-------------------------|
B|--------------------and-let-it-down-gently-------------15-14-------------------|
G|-------------------------------------------------------------15~--19-19-20/-\--|
D|--0-00-0-00-0------------------------------------------------------------------| X4
A|--0-00-0-00-0------------------------------------------------------------------|
D|--0-00-0-00-0------------------------------------------------------------------|

PM    ..   ..

   \           /
    Play this only if you are the only guitar
Or have another guitarist do the main riff behind the solo thingy and time it correctly
I figured this song out in Db Ab Db Gb Bb Eb so the solo thingy might or might not sound
correct to you, so if you know what I'm talking about you'll know how to play it in the
tuning you want.

That should be it. Happy playing!
Once again, my e-mail for any ideas, or tabbing for this album. ZiggyandGiggy@yahoo.com
Comments