Melvins - Love Thing Chords & Tabs

 

Love Thing Chords & Tabs

Melvins Chords & Tabs

Version: 1 Type: Tab 0 ratings
1 star 2 stars 3 stars 4 stars 5 stars
comments

Love Thing Tab

   
-----------------------------------------------------------------------------
                         LOVE THING - Melvins
-----------------------------------------------------------------------------

Tabbed by an17nin17
Email - c.norman83@ntlworld.com

Standard Tuning - E, A, D, G, B, E 

Intro 
Guitar 1 
|-----------------|-----------------------------| 
|-----------------|-----------------------------| 
|-------6-6h7-6~~-|-------6-6h7-7-6-------------| 
|-----7-----------|-----7-----------7-6---------| 
|---7-------------|---7-----------------7-6-6-7-| 
|-0---------------|-0---------------------------| 
|Guitar 2 
|-----------------|-----------------------------| 
|-----------------|-------------7-7-------------| 
|-----------------|---------6-9-----6-9---------| 
|-----------------|---------------------7-6-6-7-| 
|-----------------|-2-2-------------------------| 
|-----------------|-0-0-------------------------| 

Verse 
Guitar 1 
|-----------------|-----------------------------| 
|-----------------|-----------------------------| 
|-------6-6h7-6~~-|-------6-6h7-7-6-------------| 
|-----7-----------|-----7-----------7-6---------| 
|---7-------------|---7-----------------7-6-6-7-| 
|-0---------------|-0---------------------------| 
|Guitar 2 
|-----------------|-----------------------------| 
|---------5h7-5~~-|---------7p5-----------------| 
|-----6-9---------|-----6-9-----7-6-------------| 
|---7-------------|---7-------------7-6---------| 
|-0---------------|-0-------------------7-6-6-7-| 
|-----------------|-----------------------------| 

Guitars Tacet 

|-------------------------------| 
|-------------------------------| 
|-------------------------------| 
|-----2---3---4---5---7---8---9-| 
|-<7>-0---1---2---3---5---6---7-| 
|-------------------------------| 
[ Tab from: http://www.guitartabs.cc/tabs/m/melvins/love_thing_tab.html ]
Guitar 1 
|-----------------|-----------------------------| 
|-----------------|-----------------------------| 
|-------6-6h7-6~~-|-------6-6h7-7-6-------------| 
|-----7-----------|-----7-----------7-6---------| 
|---7-------------|---7-----------------7-6-6-7-| 
|-0---------------|-0---------------------------| 
|Guitar 2 
|-----------------|-----------------------------| 
|---------5h7-5~~-|---------7p5-----------------| 
|-----6-9---------|-----6-9-----7-6-------------| 
|---7-------------|---7-------------7-6---------| 
|-0---------------|-0-------------------7-6-6-7-| 
|-----------------|-----------------------------| 
Play x 2 

Chorus 

|--------------------<12>--------------------<12>-----<12>-----------| 
|---------------<12>--------------------<12>------<7>----------------| 
|--------------------------------------------------------------------| 
|--------------------------------------------------------------------| 
|-10--9-5~~-2-------------10--9-5~~-2----------------------10--9-5~~-| 
|-8---7-3~~-0-------------8---7-3~~-0----------------------8---7-3~~-| 

Guitar 1 
|---------------------------| 
|---------------------------| 
|---------------------------| 
|-7-7^-7^-7^-7^-8p7p0-8p7p0-| 
|---------------------------| 
|---------------------------| 
|Guitar 2 
|---------------------------| 
|---------------------------| 
|---------------------------| 
|---------------------------| 
|-2-2---2-2-x-2---2-2---2-2-| 
|-0-0---0-0-x-0---0-0---0-0-| 

Guitar 1 
|-----------------|-----------------------------| 
|-----------------|-----------------------------| 
|-------6-6h7-6~~-|-------6-6h7-7-6-------------| 
|-----7-----------|-----7-----------7-6---------| 
|---7-------------|---7-----------------7-6-6-7-| 
|-0---------------|-0---------------------------| 
|Guitar 2 
|-----------------|-----------------------------| 
|---------5h7-5~~-|---------7p5-----------------| 
|-----6-9---------|-----6-9-----7-6-------------| 
|---7-------------|---7-------------7-6---------| 
|-0---------------|-0-------------------7-6-6-7-| 
|-----------------|-----------------------------| 
Play x 4 

|---| 
|---| 
|---| 
|---| 
|-2-| 
|-0-|

Contact me if you have any comments about this tab.
Comments