Melvins - Lizzy Chords & Tabs

 

Lizzy Chords & Tabs

Melvins Chords & Tabs

Version: 3 Type: Tab 0 ratings
1 star 2 stars 3 stars 4 stars 5 stars
comments

Lizzy Tab

Lizzy   by the Melvins
        from the album "Houdini"
        music by Buzz Osbourne
        tabbed by baggins

Standard Tuning

~ = Bend Some
\ = Slide Down
()= Harmonics

VERSE
E ----------------|
B ----------------|
G ----------------|
D --2---2--4--4---|
A --0---0--0--3---|
E ----------------|

CHORUS

E ----------------------------------------------------------|
B ----------------------------------------------------------|
G -----------7-6-----6---6-6--------------------------------|
D -2-2-2-2---7-6-----6---6-6--------------------------------|
A -2-2-2-2---5-4-----4---4-4--------------------------------|
E -0-0-0-0--------------------------------------------------|

SOLO (GOES SOMETHING ALONG THE LINES OF)
[ Tab from: http://www.guitartabs.cc/tabs/m/melvins/lizzy_tab_ver_3.html ]
E ----------------------------------------------------------|
B ---------5~-------------7~--8\7---------------------------|
G -----5---5~--5-7-5-7-7~-7~--8\7-7-5-3-5--5-3-5------------|
D -7-7---7--------------------------------------------------|
A -0--------------------------------------------------------|
E ----------------------------------------------------------|

END

E ------------------------------------------------|
B ------------------------------------------------|
G ------------------------------------------------|
D -(7)-------------(7)-------------(7)------------|
A -----(7)-(12)--------(7)-(12)--------(7)-(12)---|
E ------------------------------------------------|


E ----------------------------------------------------------|
B ------------------------(12)------------------------------|
G -------------------(12)-----------------------------------|
D -(7)----------(12)----------------------------------------|
A -----(7)-(12)---------------------------------------------|
E -----------------------------(12)-------------------------|
Comments