Melvins - Lizzy Chords & Tabs

 

Lizzy Chords & Tabs

Melvins Chords & Tabs

Version: 2 Type: Tab 0 ratings
1 star 2 stars 3 stars 4 stars 5 stars
comments

Lizzy Tab

Artist: The Melvins
Song: Lizzy 
Tuning: Standard
Tabbed by: King Buzzo

 Verse:
E|-----------------------------------|
B|-----------------------------------|
G|-----------------------------------|
D|-2--2--4--3--3-3-3-3-3-------------|
A|-0--0--0--2--2-2-2-2-2-------------|
E|-----------------------------------|
  Iím sin done in water...
[ Tab from: http://www.guitartabs.cc/tabs/m/melvins/lizzy_tab_ver_2.html ]
 Chorus
E|-----------------------------------|
B|-----------------------------------|
G|-----------7-6----6-6--------------|
D|-2-2-2-2---7-6----6-6--------------|
A|-2-2-2-2---5-4----4-4--------------|
E|-0-0-0-0---------------------------|
  Send me a black one...


I wish I knew the solo though, itís a great song
by a really cool band. The Melvins rule
Comments