Melvins - June Bug Chords & Tabs

 

June Bug Chords & Tabs

Melvins Chords & Tabs

Version: 1 Type: Bass Tab 0 ratings
1 star 2 stars 3 stars 4 stars 5 stars
comments

June Bug Bass Tab

June Bug
The Melvins
Tabbed by Weirdski?
Email man_who_sold_the_world_26@hotmail.com
This one i'm not sure about but its ok. You'll have to work the timing out yourself.


Intro
G |.--------------------------------.|
D |.--------------------------------.|
A |--5---5-5-5-5-5-5-5-5-5-5---------|
D |---------------------------0-0-0--|

G |.----------------------------.| 
D |.----------------------------.| 
A |----------------------1----2--|
D |--0-0-3--0-0-3--0-0-0----0----|
[ Tab from: http://www.guitartabs.cc/tabs/m/melvins/june_bug_btab.html ]
G |.-----------------------------------------------.|
D |.-----------------------------------------------.|
A |--5---5-5-5-5-5-5-5-5-5-5-5----------------------|
D |-----------------------------3---3-3-3-3-3-3-3-3-|

G ---------------------------------------------------------|
D ---------------------------------------------------------|
A -5--5-5-5-5-5--3--3-3-3-3-3--2--2-2-2-2-2--1--1-1-1-1-1--|
D ---------------------------------------------------------|
 
G ---------------------------------------------------------|
D ---------------------------------------------------------|
A -5--5-5-5-5-5--3--3-3-3-3-3--2--2-2-2-2-2--3--3-3-3-3-3--|
D ---------------------------------------------------------|
Comments