Melvins - Happy Gray Or Black Chords & Tabs

 

Happy Gray Or Black Chords & Tabs

Melvins Chords & Tabs

Version: 1 Type: Tab 0 ratings
1 star 2 stars 3 stars 4 stars 5 stars
comments

Happy Gray Or Black Tab

   
Melvins - Happy Gray Or Black
Submitted By: KoRn_COF
EMail: morning_errers@hotmail.com

Tuning: Standard (E A D G B E)

Intro
E|--------------|
B|--------------|
G|---77----9999-|
D|---77----9999-|
A|---55----7777-|
E|-0----00------|

Verse
E|---------|
B|---------|
G|---------|
D|---------|
A|---------|
E|-0202023-
[ Tab from: http://www.guitartabs.cc/tabs/m/melvins/happy_gray_or_black_tab.html ]
Verse 2
E|-----------|
B|-----------|
G|---6-----6-|
D|-4-6-442-6-|
A|-4-4-442-4-|
E|-2---220---|

Bridge/end
E|--------|------------|--------------------|
B|--------|------------|--------------------|
G|--------|------------|-------------5~-----|
D|-2~--3~-|-2~--3~--4~-|-2~--3~--4~--5~--4~-|
A|-2~--3~-|-2~--3~--4~-|-2~--3~--4~--3~--4~-|
E|-0~--1~-|-0~--1~--2~-|-0~--1~--2~------2~-|

Bridge/end cont.
E|----------------------|
B|----------------------|
G|-6~-------------------|
D|-6~--6~-7~-6~-5~-6~~~-|
A|-4~--6~-7~-6~-5~-6~~~-|
E|-----4~-5~-4~-3~-4~~~-|
Comments