Melvins - Hag Me Chords & Tabs

 

Hag Me Chords & Tabs

Melvins Chords & Tabs

Version: 1 Type: Tab 0 ratings
1 star 2 stars 3 stars 4 stars 5 stars
comments

Hag Me Tab

   
Hag Me
---------------by the Melvins

Drop-D tuning


intro

E ----------------------------------------
B ----------------------------------------
G ----------------------------------------
d-(0)---------------------(0)-------------
a-(5)---------------------(0)-------------
D-(0)---------------------(0)-------------

fig.1

E ----------------------------------------
B ----------------------------------------
G ----------------------------------------
d-1-----(0)---------------5--6-----(0)----
a-1-----(0)---------------5--6-----(0)----
D-1-----(0)---------------5--6-----(0)----
  ^                          ^

do this a few times till it leads to this:

E ----------------------------------------
B ----------------------------------------
G ----------------------------------------
d-1-------(0)-------------5--6-----(1)----
a-1-------(0)-------------5--6-----(1)----
D-1-------(0)-------------5--6-----(1)----
[ Tab from: http://www.guitartabs.cc/tabs/m/melvins/hag_me_tab.html ]
which flows into this:

fig.2
E --------------|---------------------------------
B --------------|---------------------------------
G --------------|---------------------------------
d-0---1---(3)---|-0-0-0-0-0-0-0-0-0---1---6---1---
a-0---1---(3)---|-0-0-0-0-0-0-0-0-0---1---6---1---
D-0---1---(3)---|-0-0-0-0-0-0-0-0-0---1---6---1---
                  ^ ^ ^ ^ ^ ^ ^ ^ 
                  palm mute


which either goes into back into itself or into fig.1


near the end after fig.2 is played again, Buzz does this:
E ----------------------------
B ----------------------------
G ----------------------------
d-0---1---6-5-2-5-3-2-3---3---
a-0---1---6-5-2-5-3-2-3---3---
D-0---1---6-5-2-5-3-2-3---3---
                             

the end is pretty simple:

E ----------------
B ----------------
G ----------------
D-0-0-0-0-0-0-0-1-
a-0-0-0-0-0-0-0-1-
D-0-0-0-0-0-0-0-1-  
  ^ ^ ^ ^ ^ ^ ^

that's it.
Comments