Melvins - Ggiibbyy Chords & Tabs

 

Ggiibbyy Chords & Tabs

Melvins Chords & Tabs

Version: 1 Type: Tab 0 ratings
1 star 2 stars 3 stars 4 stars 5 stars
comments

Ggiibbyy Tab

Melvins - Ggiibbyy
Album: Singles 1-12
Tabbed by Ben Nield - bennield@hotmail.com

  Intro:  
E|-----------------|
B|-----------------|
G|-----------------|
D|-----------------|
A|-17~17~17~17~17~-|
E|-15~15~15~15~15~-|   X19

E|-----------------|
B|-----------------|
G|-------------0---|
D|-------------0---|
A|-17b19~~~~~~-0---|
E|-15b17~~~~~~-----|

  Verse:
E|-----------------|-----------------|
B|-----------------|-----------------|
G|-4---------------|-2-----6---------|
D|-4---------------|-2-----6---------|
A|-2---------------|-0-----4---------|
E|-----------------|-----------------|  X6
[ Tab from: http://www.guitartabs.cc/tabs/m/melvins/ggiibbyy_tab.html ]
  Chorus:
E|-----------------|-----------------|-----------------|-----------------|
B|-----------------|-----------------|-----------------|-----------------|
G|-7---------------|-6---------------|-7---------------|-9---------------|
D|-7---------------|-6---------------|-7---------------|-9---------------|
A|-5---------------|-4---------------|-5---------------|-7---------------|
E|-----------------|-----------------|-----------------|-----------------|

Repeat Chorus and Verse


E|-----------------|-----------------|
B|-----------------|-----------------|
G|-2---------------|-----------------|
D|-2---------------|-----------------|
A|-0---------------|-----------------|
E|-----------------|-----------------|
   let ring
 
E|-----------------|-----------------|
B|-----------------|-----------------|
G|-4---4-4-4-4-4-4-|-4-4-4-4-4-4-4-4-|
D|-4---4-4-4-4-4-4-|-4-4-4-4-4-4-4-4-|
A|-2---2-2-2-2-2-2-|-2-2-2-2-2-2-2-2-|  X8
E|-----------------|-----------------|
       x x x x x x   x x x x x x x x 
 
E|-----------------|-----------------|
B|-----------------|-----------------|
G|-4---7---11------|-7---9---9-------|
D|-4---5---11------|-7---7---7-------|
A|-2---5---9-------|-5---7---7-------|
E|-----------------|-----------------|
Comments