Melvins - Eye Flys Chords & Tabs

 

Eye Flys Chords & Tabs

Melvins Chords & Tabs

Version: 1 Type: Bass Tab 0 ratings
1 star 2 stars 3 stars 4 stars 5 stars
comments

Eye Flys Bass Tab

Melvins - Eye Flys

(bass)

tabbed by
ben.nield@gmail.com


intro:

g-----------------|
d-----------------|
a-----------------|
e-------------0---|

g-----------------|-----------------|
d-----------------|-----------------|
a-----------------|-----------------|
e-1---0---2---0---|-2---3---2---0---|  play this line a thousand times


g---------|
d---------|
a---------|
e-1---0---|

verse:

g-----------------------------------------------------|
d-----------------------------------------------------|
a---------2-----------5---4---------------------------|
e-2---2-------3---2-----------2---3---0---1---0---1---|

g-----------------------------------------------------|
d-----------------------------------------------------|
a-----------------------------------------------------|
e-2---2---2---2---2---2---2---2---2---2---2---2---2---|
[ Tab from: http://www.guitartabs.cc/tabs/m/melvins/eye_flys_btab.html ]
g-----------------------------------------|
d-----------------------------------------|
a---------2-----------5---4---------------|
e-2---2-------3---2-----------2---3---0---|  play this four times

g-------------|
d-------------|
a-------------|
e-1---0---1---|

g-----------------------------------------------------|
d-----------------------------------------------------|
a-----------------------------------------------------|
e-2---2---2---2---2---2---2---2---2---2---2---2---2---|

g-------------------------|
d-------------------------|
a-------------------------|
e-2---0---1---1---1---1---|  play this three times

g---------------|
d---------------|
a---------------|
e-1---1---------|

let ring

fin.


"I lay like you
I feel the same
Eye flys like you
In touch between
In fact it's moon
Don't blame the rain
That brings you here
And ask yourself
To prove that you're able
To be brave"
Comments