Melvins - Enchanted Thoughtfist Chords & Tabs

 

Enchanted Thoughtfist Chords & Tabs

Melvins Chords & Tabs

Version: 1 Type: Tab 0 ratings
1 star 2 stars 3 stars 4 stars 5 stars
comments

Enchanted Thoughtfist Tab

Jello Biafra & The Melvins
 "Enchanted Thoughtfist"

Tabbed by ben.nield@gmail.com


Intro
  1   +   2   +   3   +   4   +   1   +   2   +   3   +   4   +
e-----------------------------------------------------------------|
b-----------------------------------------------------------------|
g-----------------------------------------------------------------|
d-----------------------------------------------------------------|
a-2---3---2---0-----------------------------------0-------2-------|
e-----------------3-----------3-------3---3---3-------------------|

e-----------------------------------------------------------------|
b-----------------------------------------------------------------|
g-----------------------------------------------------------------|
d-----------------------------------------------------------------|
a-----------------------------------------------------------------|
e-0-------------------------------------------0-------0---0---0---|

Guitar 2
  1   +   2   +   3   +   4   +   1   +   2   +   3   +   4   +
e-----------------------------------------------------------------|
b-----------------------------------------------------------------|
g-0-----------2-----------4-----------2-----------0-------4/5-----|
d-----------------------------------------------------------------|
a-----------------------------------------------------------------|
e-----------------------------------------------------------------|

e-----------------------------------------------------------------|
b-----------------------------------------------------------------|
g-4---------------------------------------------------------------|
d-----------------------------------------------------------------|
a-----------------------------------------------------------------|
e-----------------------------------------------------------------|

e-----------------------------------------------------------------|
b-----------------------------------------------------------------|
g-0-----------2-----------4-----------2-----------0---------------|
d---------------------------------------------------------4h5p4---|
a-----------------------------------------------------------------|
e-----------------------------------------------------------------|

e-----------------------------------------------------------------|
b-----------------------------------------------------------------|
g-----------------------------------------------------------------|
d-2---------------------------------------------------------------|
a-----------------------------------------------------------------|
e-----------------------------------------------------------------|

Verse (4x)
e-----------------------------------------------------------------|
b-----------------------------------------------------------------|
g-----------------------------------------------------------------|
d-5---------------------------------------------------------------|
a-5-etc-----------------------------------------------------------|
e-3---------------------------------------------------------------|

e-----------------------------------------------------------------|
b-----------------------------------------------------------------|
g-----------------------------------------------------------------|
d-2---------------2-----------0-----------2-------0-------2-------|
a-2---------------2-----------0-----------2-------0-------2-------|
e-0---0---0---0-------0---0-------0---0-------0-------0------0----|
  PM all

e-----------------------------------------------------------------|
b-----------------------------------------------------------------|
g-----------------------------------------------------------------|
d-5---------------------------------------------------------------|
a-5-etc-----------------------------------------------------------|
e-3---------------------------------------------------------------|

e-----------------------------------------------------------------|
b-----------------------------------------------------------------|
g-----------------------------------------------------------------|
d-2---------------------------------------------------------------|
a-2--etc----------------------------------------------------------|
e-0---------------------------------------------------------------|


Chorus (4x)
  1   +   2   +   3   +   4   +   1   +   2   +   3   +   4   +
e-----------------------------------------------------------------|
b-----------------------------------------------------------------|
g-----------------------------------------------------------------|
d-7-etc-------------------------------------------12------11------|
a-5-----------------------------------------------10------9-------|
e-----------------------------------------------------------------|

e-----------------------------------------------------------------|
b-----------------------------------------------------------------|
g-----------------------------------------------------------------|
d-5--etc------------------------------------------12------11------|
a-3-----------------------------------------------10------9-------|
e-----------------------------------------------------------------|
[ Tab from: http://www.guitartabs.cc/tabs/m/melvins/enchanted_thoughtfist_tab.html ]
Back to Verse
Guitar 2 Plays this:
  1   +   2   +   3   +   4   +   1   +   2   +   3   +   4   +
e-----------------------------------------------------------------|
b-----------------------------------------------------------------|
g-2---4-------2---4-------2---4-------2---4-------2---4-------2---|
d-----------------------------------------------------------------|
a-----------------------------------------------------------------|
e-----------------------------------------------------------------|

e-----------------------------------------------------------------|
b-----------------------------------------------------------------|
g-4-------2---4-------2---4-------2---4-------2---4-------2---4---|
d-----------------------------------------------------------------|
a-----------------------------------------------------------------|
e-----------------------------------------------------------------|

e-----------------------------------------------------------------|
b-----------------------------------------------------------------|
g-2---4-------2---4-------2---4-------2---4-------2---4-------2---|
d-----------------------------------------------------------------|
a-----------------------------------------------------------------|
e-----------------------------------------------------------------|

e-----------------------------------------------------------------|
b-----------------------------------------------------------------|
g-4-------2---4-------2---4-------2---4-------2---4---2---4---2---|
d-----------------------------------------------------------------|
a-----------------------------------------------------------------|
e-----------------------------------------------------------------|

e-----------------------------------------------------------------|
b-----------------------------------------------------------------|
g-0-----------2-----------4-----------2-----------0-------4/5-----|
d-----------------------------------------------------------------|
a-----------------------------------------------------------------|
e-----------------------------------------------------------------|

e-----------------------------------------------------------------|
b-----------------------------------------------------------------|
g-4---------------------------------------------------------------|
d-----------------------------------------------------------------|
a-----------------------------------------------------------------|
e-----------------------------------------------------------------|

e-----------------------------------------------------------------|
b-----------------------------------------------------------------|
g-0---0---0---2---2---2---4---4---4---2---2---2-------------------|
d-------------------------------------------------4h5p4---4h5p4---|
a-----------------------------------------------------------------|
e-----------------------------------------------------------------|

e-----------------------------------------------------------------|
b-----------------------------------------------------------------|
g-----------------------------------------------------------------|
d-2---------------------------------------------------------------|
a-----------------------------------------------------------------|
e-----------------------------------------------------------------|

Back to Verse, Chorus

Then
  1   +   2   +   3   +   4   +   1   +   2   +   3   +   4   +
e-----------------------------------------------------------------|
b-----------------------------------------------------------------|
g-----------------------------------------------------------------|
d-----------------------------------------------------------------|
a-2-----------2-----------2-------2---0---3---5-------------------| x
e-0-----------0-----------0---------------------------------------|

e-----------------------------------------------------------------|
b-----------------------------------------------------------------|
g-----------------------------------------------------------------|
d-9---------------4---------------2-------------------------------|
a-7---------------2---------------0-------------------------------|
e-----------------------------------------------------------------|

e-----------------------------------------------------------------|
b-----------------------------------------------------------------|
g-----------------------------------------------------------------|
d-9---------------4---------------7-------------------------------|
a-7---------------2---------------5-------------------------------| 2x
e-----------------------------------------------------------------|

Play this 8x
e-----------------------------------------------------------------|
b-----------------------------------------------------------------|
g-----------------------------------------------------------------|
d---------------------------------4---4---4---5---5---5-----------|
a-2---2---2---2---2---2---2---2---2---2---2---3---3---3---4---4---|
e-0---0---0---0---0---0---0---0---------------------------2---2---|
 PM all

e-----------------------------------------------------------------|
b-----------------------------------------------------------------|
g-----------------------------------------------------------------|
d---------------------------------6---6---5---7---7---7-----------|
a-5---5---5---5---5---5---5---5---4---4---3---5---5---5---6---6---|
e-3---3---3---3---3---3---3---3---------------------------4---4---|
 PM all

  1   +   2   +   3   +   4   +   1   +   2   +   3   +   4   +
e-----------------------------------------------------------------|
b-----------------------------------------------------------------|
g-----------------------------------------------------------------|
d---------------------------------4---4---4---4---4---4-----------|
a-7---7---7---7---7---7---7-------2---2---2---2---2---2---5---4---|
e-5---5---5---5---5---5---5---x-x-------------------------3---2---|
 PM all

Then it goes into the next song, "Dawn of the Locusts".
Comments