Melvins - Cow Chords & Tabs

 

Cow Chords & Tabs

Melvins Chords & Tabs

Version: 1 Type: Tab 0 ratings
1 star 2 stars 3 stars 4 stars 5 stars
comments

Cow Tab

"Cow"
     by The Melvins

:ben.nield@gmail.com:

Riff 1 - play 2x
e|--------------------------------|
b|--------------------------------|
g|--------------------------------|
d|--------------------------------|
a|-7---------------2------2-------|
e|---9-7-5-7-5-3^--0------0---0-0-|

e|--------------------------------|
b|--------------------------------|
g|--------------------------------|
d|--------------------------------|
a|-----------------2------2-------|
e|-3-3-5-7-5-3-5-5-0------0---0-0-|

Riff 2 - play 4x
e|------------------------------------------------------|
b|------------------------------------------------------|
g|------------------------------------------------------|
d|-5----------------------------------------------------|
a|-3-----------------------------------2----------------|
e|-------------------------------------0----------------|
[ Tab from: http://www.guitartabs.cc/tabs/m/melvins/cow_tab.html ]
Riff 3 - play 4x
e|---------------------------------------------------------------|
b|---------------------------------------------------------------|
g|---------------------------------------------------------------|
d|---------------------------------------------------------------|
a|-2---2-------2-------2-------3-------2---2-------3-3---3-x-3---|
e|-0---0---0-0-0---0-0-0---0-0-1---0-0-0---0---0-0-1-1-0-1-x-1---|
           . .     . .     . .     . .         . .     .
e|---------------------------------------------------------------|
b|---------------------------------------------------------------|
g|---------------------------------------------------------------|
d|-----------------------------------------------------------3---|
a|-2---2-------2-------2-------3-------2---2-------3-3---3-x-1---|
e|-0---0---0-0-0---0-0-0---0-0-1---0-0-0---0---0-0-1-1-0-1-x-----|
           . .     . .     . .     . .         . .     .
Comments