Melvins - Black Bock Chords & Tabs

 

Black Bock Chords & Tabs

Melvins Chords & Tabs

Version: 1 Type: Tab 0 ratings
1 star 2 stars 3 stars 4 stars 5 stars
comments

Black Bock Tab

   
  Black Bock
by The MELVINS

bennield@hotmail.com

/ slide up
\ slide down
^ bend
h hammer


Intro

E|-------------------------------------------------|-------------------------------------------------|
B|-------------------------------------------------|-------------------------------------------------|
G|-------------------------------------------------|-------------------------------------------------|
D|-------------------------------------------------|-------------5-----------------------------------|
A|-------------2--------3-----3--2-----------2-----|-------------------5-----------------------------|
E|-3-----5--------5--3--------------5--3--5-----5--|-3-----------------------------------------------|


verse: alternate G C and D

Then

E|-------------------------------------------------|-------------------------------------------------|
B|-------------------------------------------------|-------------------------------------------------|
G|-------------------------------------------------|-------------------------------------------------|
D|-------------------------------------------------|-------------------------------------------------|
A|-------------------2/3---3--3--3--3--------3-----|-------------------3-----------------------------|
E|-3--3--3--3-----------------------------------5--|-3--3--3--3--------------------------------------|


Solo

   1     2     3     4     1     2     3     4       1     2     3     4     1     2     3     4

E|-------------------------------------------------|-------------3/5--3--10\12--10--|
B|-------------------------------------------------|-3/5---3------------------------|
G|----------------------------------------------4--|--------------------------------|
D|-5\7---5---------------5----5-----------5--7-----|--------------------------------|
A|-------------7--6--5-----------7--5--7-----------|--------------------------------|
E|-------------------------------------------------|--------------------------------|
[ Tab from: http://www.guitartabs.cc/tabs/m/melvins/black_bock_tab.html ]
E|-------------------------------------------------|-------------------------------------------------|
B|-------------------------------------------------|-------------------------------------------------|
G|-------------------------------------------------|-------------------------------------------------|
D|-7\9---7---------------5----5--------5--------5^-|-------------------------------------------------|
A|-------------7--6--5-----------7--6-----7--6-----|-------------------------------------------------|
E|-------------------------------------------------|-------------------------------------------------|

E|-------------------------------------------------|-------------------------------------------------|
B|-------------------------------------------------|-------------------------------------------------|
G|-------------------------------------------------|-------------------------------------------------|
D|-------------------5--------5--------5------5-8^-|-------------------------------------------------|
A|----5--------5--7--------7--------7----7---------|-5-----------------------------------------------|
E|/7--------7--------------------------------------|-------------------------------------------------|

E|-------------------------------------------------|-------------------------------------------------|
B|-------------------------------------------------|-------------------------------------------------|
G|-------------------------------------------------|-------------------------------------------------|
D|-------------------------------------------------|-------------------------------------------------|
A|-5-----------------------------------------------|-------------------------------------------------|
E|----7--5--3--5--3--0--3-----3--0--3--5--3--0--3^-|-------------------------------------------------|


The end part:

E|-2-----------------------------------------------|-5-----------------------------------------------|
B|-3-----------------------------------------------|-6-----------------------------------------------|
G|-2-----------------------------------------------|-5-----------------------------------------------|
D|-------------------------------------------------|-------------------------------------------------|
A|-------------------------------------------------|-------------------------------------------------|
E|-------------------------------------------------|-------------------------------------------------|

E|-4-----------------------------------------------|-3-----------------------------------------------|
B|-5-----------------------------------------------|-4-----------------------------------------------|
G|-4-----------------------------------------------|-3-----------------------------------------------|
D|-------------------------------------------------|-------------------------------------------------|
A|-------------------------------------------------|-------------------------------------------------|
E|-------------------------------------------------|-------------------------------------------------|
Comments