Melvins - Berthas Chords & Tabs

 

Berthas Chords & Tabs

Melvins Chords & Tabs

Version: 1 Type: Tab 0 ratings
1 star 2 stars 3 stars 4 stars 5 stars
comments

Berthas Tab

   
  This song is on STAG album

 E -----------------------------
 B -----------------------------
 G -----------------------------  INTRO REPEAT 2X
 D -----------------------------
 A ----------200----------------
 E 02025-0202---0012-02025550012 

   VERSE
 E ------------------------------------------------------
 B ------------------------------------------------------
 G ------------------------------------------------------
 D ------------------------------------------------------
 A 44444444444444/7777/222234-44444444444444/2222/66666/4
 E 20202020202022/5555/000012-20202020202022/0000/44444/2

[ Tab from: http://www.guitartabs.cc/tabs/m/melvins/berthas_tab.html ]
 E ------------------------------------------------
 B ------------------------------------------------
 G ------------------------------------------------
 D ----------------------------------------------/6  
 A 44444444444444/7777/222234-44444444444444/2222/4
 E 20202020202022/5555/000012-20202020202022/0000/-


  RIFF1  THEN GO BACK TO VERSE
 E ------------------------------
 B ------------------------------
 G ----------4020-04-------------
 D -24--0--------4--04--24--0----
 A 4--44-40-----------04--44-40-4
 E --------02------------------02

   ENDING RIFF
 E ---------------------------------------
 B ---------------------------------------
 G ----------4020-04----------------------
 D 24--0---------4--04--24--0-------------
 A 4--44-40-----------04--44-024-042202204
 E --------02----------------------------2

             THE END

 
Comments