Melvins - Ballad Of Dwight Fry Chords & Tabs

 

Ballad Of Dwight Fry Chords & Tabs

Melvins Chords & Tabs

Version: 1 Type: Tab 0 ratings
1 star 2 stars 3 stars 4 stars 5 stars
comments

Ballad Of Dwight Fry Tab

   
Melvins - The Ballad of Dwight Fry
(Alice Cooper)

Drop-D Tuning

  Intro Riff (they play this live): 

   1   2   3   4     1   2   3   4     1   2   3   4     1   2   3   4
E|-----------------|-----------------|-----------------|-----------------|
B|-----------------|-----------------|-----------------|-----------------|
G|-----------------|-----------------|-----------------|-----------------|
D|---------3-------|---3-2-----------|-7---------------|-----------------|
A|-----2-3-------2-|-3-------3-2-----|-7---------------|-------------8/2-|
D|-2---------------|---------------5-|-7---------------|-------------8/2-|
                                          let ring

  Riff 1 (2x):

   1   2   3   4     1   2   3   4     1   2   3   4     1   2   3   4
E|-----------------|-----------------|-----------------|-----------------|
B|-----------------|-----------------|-----------------|-----------------|
G|-----------------|-----------------|-----------------|-----------------|
D|-----------0-2-3-|-2-----3-2-0-----|-------------0-2-|-0---0-2-0-------|
A|-0-----2-3-------|-------------3-2-|-------0-2-3-----|-----------3-2---|
D|-----------------|-----------------|-5---------------|---------------5-|

E-|-----------------|-----------------|-----------------|-----------------|
B-|-----------------|-----------------|-----------------|-----------------|
G-|-----------------|-----------------|-----------------|-----------------|
D-|---------------0-|-------0---------|---------2-------|---------3-2-----|
A-|---------0-2-3---|-3-------3-2-0---|-----1-2-----1-2-|-----1-2-----3-2-|
D-|-3-----5---------|---------------5-|-2---------------|-2---------------|
 
 Pre-Verse Riff: 

    1      2      3      4      1      2      3      4 
E-|---------------------------|---------------------------|
B-|---------------------------|---------------------------|
G-|------2-2-2-------2-2-2222-|------2-2-2-------2-2-2222-|
D-|-2----2-2-2-------2-2-2222-|-2----2-2-2-------2-2-2222-|
A-|-0----0-0-0-------0-0-0000-|-0----0-0-0-------0-0-0000-|
D-|---------------------------|---------------------------|
 
   Verse Riff a (2x):

    1      2      3      4      1      2      3      4
E-|---------------------------|---------------------------|
B-|---------------------------|---------------------------|
G-|---------------------------|---------------------------|
D-|---------------------------|---------------------------|
A-|-2----2-2-2-2----2-2--2----|-5----5-5-5-5----5-5--5----|
D-|-2----2-2-2-2----2-2--2--0-|-5----5-5-5-5----5-5--5--2-|
         x x x x    x x  x           x x x x    x x  x       
[ Tab from: http://www.guitartabs.cc/tabs/m/melvins/ballad_of_dwight_fry_tab.html ]
E-|---------------------------|----------------------------|
B-|---------------------------|----------------------------|
G-|---------------------------|----------------------------|
D-|-7----7-7-7-7----7-7--7----|-5----5-5-5-5--0h2-2--2p0---|
A-|-5----5-5-5-5----5-5--5--0-|-3----3-3-3-3-------------2-|
D-|---------------------------|----------------------------|
         x x x      x x              x x x            

   Verse Riff b:

    1      2      3      4      1      2      3      4
E-|---------------------------|---------------------------|
B-|---------------------------|---------------------------|
G-|---------------------------|---------------------------|
D-|---------------------------|---------------------------|
A-|-2----2-2-2-2----2-2--2----|-5----5-5-5-5----5-5--5----|
D-|-2----2-2-2-2----2-2--2--0-|-5----5-5-5-5----5-5--5--2-|
         x x x x    x x  x           x x x x    x x  x 

E-|---------------------------|---------------------------|
B-|---------------------------|---------------------------|
G-|---------------------------|---------------------------|
D-|-7--7-7-7--7-----7--7------|-5--5-5-5--5--5-5-5-5-5----|
A-|-5--5-5-5--5-----5--5--0---|-3--3-3-3--3--3-3-3-3-3--0-|
D-|---------------------------|---------------------------|
       x x x 

  Pre-Chorus Riff:
   
   1      2      3      4    
E-|---------------------------|
B-|---------------------------|
G-|---------------------------|
D-|-5--5-5-5--5--5-5-5-5-5--5-|
A-|-3--3-3-3--3--3-3-3-3-3--3-|
D-|---------------------------|

   Chorus Riff a (2x):

    1      2      3      4      1      2      3      4
E-|---------------------------|---------------------------|
B-|---------------------------|---------------------------|
G-|---------------------------|---------------------------|
D-|-5------5------7--7---7----|---------------------------|
A-|-3------3------5--5---5----|-2------2--2-------2--2--2-|
D-|---------------------------|-2------2--2-------2--2--2-|
                                                           
   Chorus Riff b:
   
    1      2      3      4      1      2      3      4     
E-|---------------------------|---------------------------|
B-|---------------------------|---------------------------|
G-|---------------------------|---------------------------|
D-|-5------5------7--7---7----|-9---7------2------2--2--2-|
A-|-3------3------5--5---5----|-7---5------0------0--0--0-|
D-|---------------------------|---------------------------|
  
E-|---------------------------|
B-|---------------------------|
G-|---------------------------|
D-|-5---5--5---0---------0----|
A-|-3---3--3---0---------0----|
D-|------------0---------0----|

 *Repeat Verse Riff b 1x*
 *Repeat Verse Riff a 1x*
 *Repeat Verse Riff b 1x*
 *Repeat Chorus*
  
   Then this:     
E-|---------------------------|
B-|---------------------------|
G-|---------------------------|
D-|-2-------------------------|
A-|-2-------------------------|
D-|-2-------------------------|
        let ring                
        et viola.
Comments