Melodys Echo Chamber - Crystallized Chords & Tabs

 

Crystallized Chords & Tabs

Melodys Echo Chamber Chords & Tabs

Version: 1 Type: Bass Tab 0 ratings
1 star 2 stars 3 stars 4 stars 5 stars
comments

Crystallized Bass Tab

0:11

G||-11-10h11-10h11-10h11----------10h11-10h11-10h11----------10h11-10h11-10h11--------------|
D||---------------------12-------------------------12-------------------------12------------|
A||-----------------------10101010-------------------10101010---------------------10101010--|
E||-----------------------------------------------------------------------------------------|

G||-11-10h11-10h11-10h11------------|
D||---------------------12----------|
A||-----------------------10101010--|
E||---------------------------------|

G||-12h14-12h14-12h14-12h14-----------|
D||------------------------14---------|
A||--------------------------12121212-| X4
E||-----------------------------------|

G||-11-10h11-10h11----------15h16-15h16-15h16--------|
D||---------------12-------------------------16------|
A||-----------------14141414-------------------121212|
E||--------------------------------------------------|


G||-12h14-12h14-12h14-12h14-----------|
D||------------------------14---------|
A||--------------------------12121212-| X4
E||-----------------------------------|

G||-11-10h11-10h11----------15h16-15h16-15h16--------|
D||---------------12-------------------------16------|
A||-----------------14141414-------------------121212|
E||--------------------------------------------------|


G||-12h14-12h14-12h14-12h14-----------|
D||------------------------14---------|
A||--------------------------12121212-| X6
E||-----------------------------------|

G||-11-10h11-10h11-10h11------------|
D||---------------------12----------|
A||-----------------------10101010--|
E||---------------------------------| X2

G||-12h14-12h14-12h14-12h14-----------|
D||------------------------14---------|
A||--------------------------12121212-| X3
E||-----------------------------------|

G||-11-10h11-10h11-10h11------------|
D||---------------------12----------|
A||-----------------------10101010--|
E||---------------------------------|

G||-12h14-12h14-12h14-12h14-----------|
D||------------------------14---------|
A||--------------------------12121212-|
E||-----------------------------------|
[ Tab from: http://www.guitartabs.cc/tabs/m/melodys_echo_chamber/crystallized_btab.html ]
G||-11-11h13-11h13-11h13------------|
D||---------------------14----------|
A||-----------------------10101010--|X4
E||---------------------------------|

G||-11-10h11-10h11----------15h16-15h16-15h16--------|
D||---------------12-------------------------16------|
A||-----------------14141414-------------------121212|
E||--------------------------------------------------|

G||-12h14-12h14-12h14-12h14-----------|
D||------------------------14---------|
A||--------------------------12121212-| X4
E||-----------------------------------|

G||-11-10h11-10h11----------15h16-15h16-15h16--------|
D||---------------12-------------------------16------|
A||-----------------14141414-------------------121212|
E||--------------------------------------------------|


G||-12h14-12h14-12h14-12h14---------|
D||------------------------14-------|
A||--------------------------121212-| X4
E||---------------------------------|

G||-11-10h11-10h11----------15h16-15h16-15h16--------|
D||---------------12-------------------------16------|
A||-----------------14141414-------------------121212|
E||--------------------------------------------------|

G||-12h14-12h14-12h14-12h14-----------|
D||------------------------14---------|
A||--------------------------12121212-| X6
E||-----------------------------------|

G||------------------------------|
D||------------------------------|
A||-1010101010----121212121212---| X8
E||------------------------------| (BACK BASS)


G||-12h14-12h14-12h14-12h14-----------|
D||------------------------14---------|
A||--------------------------12121212-| X4
E||-----------------------------------|

G||-11-10h11-10h11----------15h16-15h16-15h16--------|
D||---------------12-------------------------16------|
A||-----------------14141414-------------------121212|
E||--------------------------------------------------|


(FUZZ)
G||---------1414h12-14h12-14h12-----------|
D||----------------------------14---------|
A||-12121212---------------------12121212-| X4
E||---------------------------------------|

G||-------------------------------|
D||-------------------------------|
A||-12121212---14141515/19--------| X2
E||-------------------------------|





BY YONATHANGARFIAS
@YONATHANGARFIAS
Comments