Melee - War Chords & Tabs

 

War Chords & Tabs

Melee Chords & Tabs

Version: 1 Type: Tab 0 ratings
1 star 2 stars 3 stars 4 stars 5 stars
comments

War Tab

   
Tabbed by: yelofnivek

Tuning: standard


intro/verse
e|--------4------------------------------------------------------------------|
B|----5------------5---------------------------------------------------------|
G|------4----x4------4-----------9-------------------------------------------|
D|--2------------------6--x4-----9-7-----------------------------------------|
A|-------------------------------7-7-----------------------------------------|
E|---------------4-----------------5-----------------------------------------|

chorus
e|---------------------------------------------------------------------------|
B|---------------------------------------------------------------------------|
G|-9-------------------------------------------------------------------------|
D|-9---9---11---9------------------------------------------------------------|
A|-7---9---11---9------------------------------------------------------------|
E|-----7---9----7------------------------------------------------------------|
[ Tab from: http://www.guitartabs.cc/tabs/m/melee/war_tab.html ]
little bridge thingy
e|--0000000000000000---------------------------------------------------------|
B|---------------------------------------------------------------------------|
G|------------------1111111111111111-----------------------------------------|
D|---------------------------------------------------------------------------|
A|---------------------------------------------------------------------------|
E|---------------------------------------------------------------------------|

2nd verse
e|---------------------------------------------------------------------------|
B|-----5-5-5-5-5-5-5-5-------------------------------------------------------|
G|----4-4-4-4-4-4-4-4---9----------------------------------------------------|
D|----------------------9-7--------------------------------------------------|
A|----------------------7-7--------------------------------------------------|
E|------------------------5--------------------------------------------------|



first tab 8)
im having trouble with the second bridge, ill get to it a little later


| /  slide up
| \  slide down
| h  hammer-on
| p  pull-off
| ~  vibrato
| +  harmonic
| x  Mute note
===============================================================================
Comments