Mekaal Hasan Band - Sajan Chords & Tabs

 

Sajan Chords & Tabs

Mekaal Hasan Band Chords & Tabs

Version: 1 Type: Tab

Sajan Tab

   
----------------------------------------------------------------------------
SONG NAME:        Sajan
Band Name:        Mekaal Hasan Band
Album Name:       Sampooran
Official Website: www.mekaalhasanband.com
----------------------------------------------------------------------------
Tabbed by: Abubakar Siddique Muqaddas (guitarmaestro)
Email:     matric2005@hotmail.com

Tuning: Standard

Intro
   D  A  E
e|-x--0--0-----|
B|-3--2--0-----|
G|-2--2--1-----| x 4 times
D|-0--2--2-----| 
A|-x--0--2-----|
E|-x--0--0-----|

then arpeggio :
e|------------------------0----|
B|-------0--------0---------0--|
G|-----2--------1--------------| x 3 times
D|---2--------2----------------|
A|-----------------------------|
E|-2--------0------------------|

e|----------5------------------|
B|--------5--------------------|
G|------7----------------------|
D|----7------------------------|
A|-----------------------------|
E|--7--------------------------|

  A    E         D      A     A    E         D     A
Sajan dey hath baan, Saadee Sajan dey hath baan, Saadee

Kee kar aakhan chad ve ariya, (listen to song carefully for this part)
e|------------------------0----|
B|-------0--------0---------0--|
G|-----2--------1--------------| x 3 times
D|---2--------2----------------|
A|-----------------------------|
E|-2--------0------------------|

Rpeat the same with the flute part

           Raat haneri         Badal Kaniya           Baaj vakeela
e|-------0-------------------0----------------0---0------------------------|
B|-----3-------------------3--------------------3---3----------------------|
G|---1-------------------2-------------------------------------------------|
D|---------------------0--------------------4------------------------------|
A|-2-----------------------------------------------------------------------|
E|-------------------------------------------------------------------------|

Mushkil baniya
e|----------5------------------|
B|--------5--------------------|
G|------7----------------------|
D|----7------------------------|
A|-----------------------------|
E|--7--------------------------|

           Daade keeta         Chad ve ariya          Kee ker aakha    
e|-------0-------------------0----------------0---0------------------------|
B|-----3-------------------3--------------------3---3----------------------|
G|---1-------------------2-------------------------------------------------|
D|---------------------0--------------------4------------------------------|
A|-2-----------------------------------------------------------------------|
E|-------------------------------------------------------------------------|
[ Tab from: http://www.guitartabs.cc/tabs/m/mekaal_hasan_band/sajan_tab.html ]
Chad ve ariya
e|----------5------------------|
B|--------5--------------------|
G|------7----------------------|
D|----7------------------------|
A|-----------------------------|
E|--7--------------------------|


 A    E         D          A      A    E         D          A     
Kee kar aakhan   chad ve ariya   Kee kar aakhan   chad ve ariya

Solo
e|--------------------------------5-5-5h7-7--7-5-7-7-----------------------|
B|-----5-5-5h7-3-2h3-5-5s2-2---------------5---------5-5h7-5-3-2-5-3-2-2---|
G|--4h6-----------------------4h6------------------------------------------|
D|-------------------------------------------------------------------------|
A|-------------------------------------------------------------------------|
E|-------------------------------------------------------------------------|

e|---------------------------------5h7-5---5-7h9-9-7-7---------5---5----7--|
B|-------------------5s7-5-5-7-5h7-------7-------------9-7-5-7-------------|
G|-4-2-2h4-4s6-6-4-2---------------------------------------------6---6-7---|
D|-------------------------------------------------------------------------|
A|-------------------------------------------------------------------------|
E|-------------------------------------------------------------------------|

e|---9--------------------------9-9-4-------------------------7-7-7-5-4-5-4|
B|-------7-7h9-9-10-10--2p0-5-0-------3-5-5h7-5-5-3-0-2-5-3s5--------------|
G|-9---9-------------------------------------------------------------------|
D|-------------------------------------------------------------------------|
A|-------------------------------------------------------------------------|
E|-------------------------------------------------------------------------|

e|-----------------2---------------------------------------------5---4-----|
B|-5-5h7-5-3-2-3-5---2-------2-----------------------2---2---------3-------|
G|---------------------2-2-4-----------------2-2h4-4-4-4-----2-------------|
D|-----------------------------2s4-7-------4---------------4---2-----------|
A|-----------------------------------2s4-7---------------------------------|
E|-------------------------------------------------------------------------|

e|-5p4----------------5-7-9-7-5-4------------7-9-10-12h14-12---------------|
B|----5-5h7-7-5-5-3h5-----------------7-9-10-------------------------------|
G|--------------------------------7-9--------------------------------------|
D|-------------------------------------------------------------------------|
A|-------------------------------------------------------------------------|
E|-------------------------------------------------------------------------|

The rest you can figure it out.

| /  slide up
| \  slide down
| h  hammer-on
| p  pull-off
| ~  vibrato
| +  harmonic
| x  Mute note
===============================================================================