Megaman 3 - Password Theme Chords & Tabs

 

Password Theme Chords & Tabs

Megaman 3 Chords & Tabs

Version: 1 Type: Tab 0 ratings
1 star 2 stars 3 stars 4 stars 5 stars
comments

Password Theme Tab

Song: Password Theme
Tabbed By: Tim Barr
MX ID: SpADeD
Date: 11/29/03
Comments: Tabbed down an octave lower for guitar :p.
                                                                   
E||--6-------6-----4-----4-----|------------------4-------4-------|
B||----------------------------|--7-------7-----------------------|
G||-------6------6-----6-----6-|-------6-------6-------6-------6--|
D||----------------------------|----------------------------------|
A||----------------------------|----------------------------------|
E||----------------------------|----------------------------------|


                                                              
-------6--9---11----11----11--|-----11--9--------9---7-6---7-|
--7---------------------------|--------------11--------------|
------------------------------|------------------------------|
------------------------------|------------------------------|
------------------------------|------------------------------|
------------------------------|------------------------------|


                                                                
--6-------6-----4-----4-----|------------------4-------4-------|
----------------------------|--7-------7-----------------------|
-------6------6-----6-----6-|-------6-------6-------6-------6--|
----------------------------|----------------------------------|
----------------------------|----------------------------------|
----------------------------|----------------------------------|


                                                        
--9-----6--9------6---9--|-----7-9-7-6--4-6---------4--|
------7---------7--------|--------------------6-7------|
-------------------------|-----------------------------|
-------------------------|-----------------------------|
-------------------------|-----------------------------|
-------------------------|-----------------------------|

[ Tab from: http://www.guitartabs.cc/tabs/m/megaman_3/password_theme_tab.html ]
                                                                   
---6-------6-----4-----4------|-------------------4-------4-------|
------------------------------|---7-------7-----------------------|
--------6------6-----6-----6--|--------6-------6-------6-------6--|
------------------------------|-----------------------------------|
------------------------------|-----------------------------------|
------------------------------|-----------------------------------|


                                                                
--------6--9---11----11----11--|-----11--9--------9---7-6---7--|
---7---------------------------|--------------11---------------|
-------------------------------|-------------------------------|
-------------------------------|-------------------------------|
-------------------------------|-------------------------------|
-------------------------------|-------------------------------|


                                                                   
---6-------6-----4-----4------|-------------------4-------4-------|
------------------------------|---7-------7-----------------------|
--------6------6-----6-----6--|--------6-------6-------6-------6--|
------------------------------|-----------------------------------|
------------------------------|-----------------------------------|
------------------------------|-----------------------------------|


                                                         
---9-----6--9------6---9--|----7-9-7-6--4-6---------4-6-|
-------7---------7--------|-------------------6-7-------|
--------------------------|-----------------------------|
--------------------------|-----------------------------|
--------------------------|-----------------------------|
--------------------------|-----------------------------|


                                                                
--------6-----4-----4-------|----------------4-------4---------|
--------------------------7-|--------7-----------------------7-|
-----6------6-----6-----6---|-----6-------6-------6-------6----|
----------------------------|----------------------------------|
----------------------------|----------------------------------|
----------------------------|----------------------------------|


                                                           
-----6--9---11----11----11-|----11--9--------9---7-6---7-||
---------------------------|-------------11--------------||
---------------------------|-----------------------------||
---------------------------|-----------------------------||
---------------------------|-----------------------------||
---------------------------|-----------------------------||


Comments