Megaman 3 - Gemini Mans Theme Chords & Tabs

 

Gemini Mans Theme Chords & Tabs

Megaman 3 Chords & Tabs

Version: 1 Type: Tab 0 ratings
1 star 2 stars 3 stars 4 stars 5 stars
comments

Gemini Mans Theme Tab

Song: Megaman 3 : Geminiman's Theme
Tabbed By: Tim Barr 
MX ID: SpADeD                                                                               
Date: 1/27/04                                                                           

Guitar 1:                                                                           
E||----------3----3-------|----------4----4-------|----------3----3-------|
B||-------4------------1--|--0----3---------------|-------4------------1--|
G||--5--------------------|--------------------4--|--5--------------------|
D||-----------------------|-----------------------|-----------------------|
A||-----------------------|-----------------------|-----------------------|
E||-----------------------|-----------------------|-----------------------|


                                                                          
----------4----4-------|-----------------------|-----3-1-----1--------1--|
--0----3---------------|-------4--6----6----6--|---------4---------4-----|
--------------------4--|----5------------------|-------------------------|
-----------------------|-----------------------|-------------------------|
-----------------------|-----------------------|-------------------------|
-----------------------|-----------------------|-------------------------|


                                                                        
------------1----1-----|-----------------------|----------1----1----1--|
----4---------------4--|-----------------3-2-1-|----1--4---------------|
-----------------------|-----------------------|-----------------------|
-----------------------|-----------------------|-----------------------|
-----------------------|-----------------------|-----------------------|
-----------------------|-----------------------|-----------------------|


                                                                          
-----3-1-----1--------1--|------------1----1-----|-----------------------|
---------4---------4-----|----4---------------4--|-----------------3-2-1-|
-------------------------|-----------------------|-----------------------|
-------------------------|-----------------------|-----------------------|
-------------------------|-----------------------|-----------------------|
-------------------------|-----------------------|-----------------------|


                                                                          
----------1----1----1--|-----3-1-----1--------1--|------------1----1-----|
----1--4---------------|---------4---------4-----|----4---------------4--|
-----------------------|-------------------------|-----------------------|
-----------------------|-------------------------|-----------------------|
-----------------------|-------------------------|-----------------------|
-----------------------|-------------------------|-----------------------|


                                                                          
-----------------------|----------1----1----1--|-----3-1-----1--------1--|
-----------------3-2-1-|----1--4---------------|---------4---------4-----|
-----------------------|-----------------------|-------------------------|
-----------------------|-----------------------|-------------------------|
-----------------------|-----------------------|-------------------------|
-----------------------|-----------------------|-------------------------|


                                                               
------------4----4--3--|------------------|-------------------|
----4------------------|------------------|--1----------------|
-----------------------|------------------|-------------------|
-----------------------|------------------|-------------------|
-----------------------|------------------|-------------------|
-----------------------|------------------|-------------------|


                                                              
-------------------|--1----------------|------------------1--|
--4----------------|-------------------|---------------4-----|
-------------------|-------------------|---------------------|
-------------------|-------------------|---------------------|
-------------------|-------------------|---------------------|
-------------------|-------------------|---------------------|


                                                                               
-------------------|-------------------|-------------------|------------------|
--4----------------|-------------------|-------------------|------------------|
-------------------|--5----------------|-------------------|------------------|
-------------------|-------------------|--5----------------|------------------|
-------------------|-------------------|-------------------|------------------|
-------------------|-------------------|-------------------|------------------|


                                                            
-------------------|-------------------|--1----------------|
--1----------------|--4----------------|-------------------|
-------------------|-------------------|-------------------|
-------------------|-------------------|-------------------|
-------------------|-------------------|-------------------|
-------------------|-------------------|-------------------|


                                                              
------------------1--|-------------------|-------------------|
---------------4-----|--4----------------|-------------------|
---------------------|-------------------|--5----------------|
---------------------|-------------------|-------------------|
---------------------|-------------------|-------------------|
---------------------|-------------------|-------------------|


                                                                               
-------------------|------------------|--1----------------|--4----------------|
-------------------|------------------|-------------------|-------------------|
-------------------|------------------|-------------------|-------------------|
--5----------------|------------------|-------------------|-------------------|
-------------------|------------------|-------------------|-------------------|
-------------------|------------------|-------------------|-------------------|


                                                            
--4----------------|----------------6--|--8----------------|
-------------------|-------------------|-------------------|
-------------------|-------------------|-------------------|
-------------------|-------------------|-------------------|
-------------------|-------------------|-------------------|
-------------------|-------------------|-------------------|


                                                               
----------11--------|--10----------------|--------------------|
--------------------|--------------------|--11----------------|
--------------------|--------------------|--------------------|
--------------------|--------------------|--------------------|
--------------------|--------------------|--------------------|
--------------------|--------------------|--------------------|


                                                                               
--8----------------|------------------|------------------|--------------6--4--|
-------------------|------------------|------------------|--------------------|
-------------------|------------------|------------------|--------------------|
-------------------|------------------|------------------|--------------------|
-------------------|------------------|------------------|--------------------|
-------------------|------------------|------------------|--------------------|


                                                                             
--3-------1----1-------|----1-------1----1----1--|-------8--13----13--------|
-------1------------1--|--4---4-1----------------|--1-------------------13--|
-----------------------|-------------------------|--------------------------|
-----------------------|-------------------------|--------------------------|
-----------------------|-------------------------|--------------------------|
-----------------------|-------------------------|--------------------------|


                                                          
--11-13-11------13----13----13--|------------------------|
-----------13-------------------|-----------8----8-------|
--------------------------------|--------8------------5--|
--------------------------------|--10--------------------|
--------------------------------|------------------------|
--------------------------------|------------------------|


                                                                        
----------4----4-------|----------3----3-------|----------4----4-------|
-------3---------------|-------4------------1--|--0----3---------------|
--4-----------------4--|--5--------------------|--------------------4--|
-----------------------|-----------------------|-----------------------|
-----------------------|-----------------------|-----------------------|
-----------------------|-----------------------|-----------------------|


                                                                          
-----------------------|-----3-1-----1--------1--|------------1----1-----|
-------4--6----6----6--|---------4---------4-----|----4---------------4--|
----5------------------|-------------------------|-----------------------|
-----------------------|-------------------------|-----------------------|
-----------------------|-------------------------|-----------------------|
-----------------------|-------------------------|-----------------------|


                                                                          
-----------------------|----------1----1----1--|-----3-1-----1--------1--|
-----------------3-2-1-|----1--4---------------|---------4---------4-----|
-----------------------|-----------------------|-------------------------|
-----------------------|-----------------------|-------------------------|
-----------------------|-----------------------|-------------------------|
-----------------------|-----------------------|-------------------------|


                                                                        
------------1----1-----|-----------------------|----------1----1----1--|
----4---------------4--|-----------------3-2-1-|----1--4---------------|
-----------------------|-----------------------|-----------------------|
-----------------------|-----------------------|-----------------------|
-----------------------|-----------------------|-----------------------|
-----------------------|-----------------------|-----------------------|


                                                                          
-----3-1-----1--------1--|------------1----1-----|-----------------------|
---------4---------4-----|----4---------------4--|-----------------3-2-1-|
-------------------------|-----------------------|-----------------------|
-------------------------|-----------------------|-----------------------|
-------------------------|-----------------------|-----------------------|
-------------------------|-----------------------|-----------------------|


                                                                          
----------1----1----1--|-----3-1-----1--------1--|------------4----4--3--|
----1--4---------------|---------4---------4-----|----4------------------|
-----------------------|-------------------------|-----------------------|
-----------------------|-------------------------|-----------------------|
-----------------------|-------------------------|-----------------------|
-----------------------|-------------------------|-----------------------|


                                                                               
------------------|-------------------|-------------------|--1----------------|
------------------|--1----------------|--4----------------|-------------------|
------------------|-------------------|-------------------|-------------------|
------------------|-------------------|-------------------|-------------------|
------------------|-------------------|-------------------|-------------------|
------------------|-------------------|-------------------|-------------------|


                                                              
------------------1--|-------------------|-------------------|
---------------4-----|--4----------------|-------------------|
---------------------|-------------------|--5----------------|
---------------------|-------------------|-------------------|
---------------------|-------------------|-------------------|
---------------------|-------------------|-------------------|


                                                                               
-------------------|------------------|-------------------|-------------------|
-------------------|------------------|--1----------------|--4----------------|
-------------------|------------------|-------------------|-------------------|
--5----------------|------------------|-------------------|-------------------|
-------------------|------------------|-------------------|-------------------|
-------------------|------------------|-------------------|-------------------|


                                                              
--1----------------|------------------1--|-------------------|
-------------------|---------------4-----|--4----------------|
-------------------|---------------------|-------------------|
-------------------|---------------------|-------------------|
-------------------|---------------------|-------------------|
-------------------|---------------------|-------------------|


                                                                               
-------------------|-------------------|------------------|--1----------------|
-------------------|-------------------|------------------|-------------------|
--5----------------|-------------------|------------------|-------------------|
-------------------|--5----------------|------------------|-------------------|
-------------------|-------------------|------------------|-------------------|
-------------------|-------------------|------------------|-------------------|


                                                                                
--4----------------|--4----------------|----------------6--|--8----------------|
-------------------|-------------------|-------------------|-------------------|
-------------------|-------------------|-------------------|-------------------|
-------------------|-------------------|-------------------|-------------------|
-------------------|-------------------|-------------------|-------------------|
-------------------|-------------------|-------------------|-------------------|


                                                               
----------11--------|--10----------------|--------------------|
--------------------|--------------------|--11----------------|
--------------------|--------------------|--------------------|
--------------------|--------------------|--------------------|
--------------------|--------------------|--------------------|
--------------------|--------------------|--------------------|

[ Tab from: http://www.guitartabs.cc/tabs/m/megaman_3/gemini_mans_theme_tab.html ]
                                                                               
--8----------------|------------------|------------------|--------------6--4--|
-------------------|------------------|------------------|--------------------|
-------------------|------------------|------------------|--------------------|
-------------------|------------------|------------------|--------------------|
-------------------|------------------|------------------|--------------------|
-------------------|------------------|------------------|--------------------|


                                                                             
--3-------1----1-------|----1-------1----1----1--|-------8--13----13--------|
-------1------------1--|--4---4-1----------------|--1-------------------13--|
-----------------------|-------------------------|--------------------------|
-----------------------|-------------------------|--------------------------|
-----------------------|-------------------------|--------------------------|
-----------------------|-------------------------|--------------------------|


                                                          
--11-13-11------13----13----13--|------------------------|
-----------13-------------------|-----------8----8-------|
--------------------------------|--------8------------5--|
--------------------------------|--10--------------------|
--------------------------------|------------------------|
--------------------------------|------------------------|


                                                                        
----------4----4-------|----------3----3-------|----------4----4-------|
-------3---------------|-------4------------1--|--0----3---------------|
--4-----------------4--|--5--------------------|--------------------4--|
-----------------------|-----------------------|-----------------------|
-----------------------|-----------------------|-----------------------|
-----------------------|-----------------------|-----------------------|


                                                                          
-----------------------|-----3-1-----1--------1--|------------1----1-----|
-------4--6----6----6--|---------4---------4-----|----4---------------4--|
----5------------------|-------------------------|-----------------------|
-----------------------|-------------------------|-----------------------|
-----------------------|-------------------------|-----------------------|
-----------------------|-------------------------|-----------------------|


                                                                          
-----------------------|----------1----1----1--|-----3-1-----1--------1--|
-----------------3-2-1-|----1--4---------------|---------4---------4-----|
-----------------------|-----------------------|-------------------------|
-----------------------|-----------------------|-------------------------|
-----------------------|-----------------------|-------------------------|
-----------------------|-----------------------|-------------------------|


                                                                        
------------1----1-----|-----------------------|----------1----1----1--|
----4---------------4--|-----------------3-2-1-|----1--4---------------|
-----------------------|-----------------------|-----------------------|
-----------------------|-----------------------|-----------------------|
-----------------------|-----------------------|-----------------------|
-----------------------|-----------------------|-----------------------|


                                                                          
-----3-1-----1--------1--|------------1----1-----|-----------------------|
---------4---------4-----|----4---------------4--|-----------------3-2-1-|
-------------------------|-----------------------|-----------------------|
-------------------------|-----------------------|-----------------------|
-------------------------|-----------------------|-----------------------|
-------------------------|-----------------------|-----------------------|


                                                                          
----------1----1----1--|-----3-1-----1--------1--|------------4----4--3--|
----1--4---------------|---------4---------4-----|----4------------------|
-----------------------|-------------------------|-----------------------|
-----------------------|-------------------------|-----------------------|
-----------------------|-------------------------|-----------------------|
-----------------------|-------------------------|-----------------------|


                                                                               
------------------|-------------------|-------------------|--1----------------|
------------------|--1----------------|--4----------------|-------------------|
------------------|-------------------|-------------------|-------------------|
------------------|-------------------|-------------------|-------------------|
------------------|-------------------|-------------------|-------------------|
------------------|-------------------|-------------------|-------------------|


                                                              
------------------1--|-------------------|-------------------|
---------------4-----|--4----------------|-------------------|
---------------------|-------------------|--5----------------|
---------------------|-------------------|-------------------|
---------------------|-------------------|-------------------|
---------------------|-------------------|-------------------|


                                                                               
-------------------|------------------|-------------------|-------------------|
-------------------|------------------|--1----------------|--4----------------|
-------------------|------------------|-------------------|-------------------|
--5----------------|------------------|-------------------|-------------------|
-------------------|------------------|-------------------|-------------------|
-------------------|------------------|-------------------|-------------------|


                                                              
--1----------------|------------------1--|-------------------|
-------------------|---------------4-----|--4----------------|
-------------------|---------------------|-------------------|
-------------------|---------------------|-------------------|
-------------------|---------------------|-------------------|
-------------------|---------------------|-------------------|


                                                                               
-------------------|-------------------|------------------|--1----------------|
-------------------|-------------------|------------------|-------------------|
--5----------------|-------------------|------------------|-------------------|
-------------------|--5----------------|------------------|-------------------|
-------------------|-------------------|------------------|-------------------|
-------------------|-------------------|------------------|-------------------|


                                                                                
--4----------------|--4----------------|----------------6--|--8----------------|
-------------------|-------------------|-------------------|-------------------|
-------------------|-------------------|-------------------|-------------------|
-------------------|-------------------|-------------------|-------------------|
-------------------|-------------------|-------------------|-------------------|
-------------------|-------------------|-------------------|-------------------|


                                                               
----------11--------|--10----------------|--------------------|
--------------------|--------------------|--11----------------|
--------------------|--------------------|--------------------|
--------------------|--------------------|--------------------|
--------------------|--------------------|--------------------|
--------------------|--------------------|--------------------|


                                                                               
--8----------------|--------------6--4--|
-------------------|--------------------|
-------------------|--------------------|
-------------------|--------------------|
-------------------|--------------------|
-------------------|--------------------|


                                                                             
--3-------1----1-------|----1-------1----1----1--|-------8--13----13--------|
-------1------------1--|--4---4-1----------------|--1-------------------13--|
-----------------------|-------------------------|--------------------------|
-----------------------|-------------------------|--------------------------|
-----------------------|-------------------------|--------------------------|
-----------------------|-------------------------|--------------------------|


                                  
--11-13-11------13----13----13--||
-----------13-------------------||
--------------------------------||
--------------------------------||
--------------------------------||
--------------------------------||




Guitar 2:                                                                               
E||--3--------3--------|--9----------------|
B||--------------------|-------------------|
G||--------------------|-------------------|
D||--------------------|-------------------|
A||--------------------|-------------------|
E||--------------------|-------------------|


                                                                    
-------6-8-10---11--------|--8----------------|--------------------|
---8-9--------------------|-------------------|--8--------8--------|
--------------------------|-------------------|--------------------|
--------------------------|-------------------|--------------------|
--------------------------|-------------------|--------------------|
--------------------------|-------------------|--------------------|


                                                                   
--9----------------|-------6-8-10---11--------|--8----------------|
-------------------|---8-9--------------------|-------------------|
-------------------|--------------------------|-------------------|
-------------------|--------------------------|-------------------|
-------------------|--------------------------|-------------------|
-------------------|--------------------------|-------------------|


                                                                       
--13--------16--------|--16--------------16-18-|--20------------23----|
----------------------|------------------------|----------------------|
----------------------|------------------------|----------------------|
----------------------|------------------------|----------------------|
----------------------|------------------------|----------------------|
----------------------|------------------------|----------------------|


                                                                   
--22------------------|--20----------------|----------------18-16-|
------------23--------|--------------------|----------------------|
----------------------|--------------------|----------------------|
----------------------|--------------------|----------------------|
----------------------|--------------------|----------------------|
----------------------|--------------------|----------------------|


                                            
--15-----13--13-----11-13-11----13--13-----|
------13---------13----------13---------13-|
-------------------------------------------|
-------------------------------------------|
-------------------------------------------|
-------------------------------------------|


                                                               
--20--23-25--25--20-23-25-23-20-25--25--20-|------------------|
-------------------------------------------|------------------|
-------------------------------------------|------------------|
-------------------------------------------|------------------|
-------------------------------------------|------------------|
-------------------------------------------|------------------|
                                                                            

                                                            
------------------|--3--------3--------|--9----------------|
------------------|--------------------|-------------------|
------------------|--------------------|-------------------|
------------------|--------------------|-------------------|
------------------|--------------------|-------------------|
------------------|--------------------|-------------------|


                                                                    
-------6-8-10---11--------|--8----------------|--------------------|
---8-9--------------------|-------------------|--8--------8--------|
--------------------------|-------------------|--------------------|
--------------------------|-------------------|--------------------|
--------------------------|-------------------|--------------------|
--------------------------|-------------------|--------------------|


                                                                   
--9----------------|-------6-8-10---11--------|--8----------------|
-------------------|---8-9--------------------|-------------------|
-------------------|--------------------------|-------------------|
-------------------|--------------------------|-------------------|
-------------------|--------------------------|-------------------|
-------------------|--------------------------|-------------------|


                                                                       
--13--------16--------|--16--------------16-18-|--20------------23----|
----------------------|------------------------|----------------------|
----------------------|------------------------|----------------------|
----------------------|------------------------|----------------------|
----------------------|------------------------|----------------------|
----------------------|------------------------|----------------------|


                                                                   
--22------------------|--20----------------|----------------18-16-|
------------23--------|--------------------|----------------------|
----------------------|--------------------|----------------------|
----------------------|--------------------|----------------------|
----------------------|--------------------|----------------------|
----------------------|--------------------|----------------------|


                                            
--15-----13--13-----11-13-11----13--13-----|
------13---------13----------13---------13-|
-------------------------------------------|
-------------------------------------------|
-------------------------------------------|
-------------------------------------------|


                                                                     
--20--23-25--25--20-23-25-23-20-25--25--20-|---|---|---|---|---|---||
-------------------------------------------|---|---|---|---|---|---||
-------------------------------------------|---|---|---|---|---|---||
-------------------------------------------|---|---|---|---|---|---||
-------------------------------------------|---|---|---|---|---|---||
-------------------------------------------|---|---|---|---|---|---||


Comments