Megaman 2 - Ending Theme Chords & Tabs

 

Ending Theme Chords & Tabs

Megaman 2 Chords & Tabs

Version: 1 Type: Tab 0 ratings
1 star 2 stars 3 stars 4 stars 5 stars
comments

Ending Theme Tab

Song: Megaman 2: Ending Theme
Tabbed By: Tim Barr
MX ID: SpADeD
Date: 1/19/04
      
                                                                       
E||-------4-----------|---0--4--7----5-4----2--|------4-------------0-|
B||-----------------2-|------------------------|-----------------2----|
G||-------------------|------------------------|----------------------|
D||-------------------|------------------------|----------------------|
A||-------------------|------------------------|----------------------|
E||-------------------|------------------------|----------------------|


                                                                     
---4-7----5--4----2---|-----4-------------0-|---4-7----5--4----2----|
----------------------|----------------2----|-----------------------|
----------------------|---------------------|-----------------------|
----------------------|---------------------|-----------------------|
----------------------|---------------------|-----------------------|
----------------------|---------------------|-----------------------|


                                                                    
---4------------0--4-|---7----5--4----2-----|---5--------5-7----9--|
--------------2------|----------------------|----------------------|
---------------------|----------------------|----------------------|
---------------------|----------------------|----------------------|
---------------------|----------------------|----------------------|
---------------------|----------------------|----------------------|


                                                                            
---------------7------12-|---------12--10--9--7--6-|-------6--7--9---------|
--9-----9--10------------|-------------------------|--------------------10-|
-------------------------|-------------------------|-----------------------|
-------------------------|-------------------------|-----------------------|
-------------------------|-------------------------|-----------------------|
-------------------------|-------------------------|-----------------------|


                                                               
---------7--5--7--17--16-17--19-|---17--19--------------------|
---9--10------------------------|------------------------14---|
--------------------------------|---------------------14------|
--------------------------------|----------------16-----------|
--------------------------------|-----------17----------------|
--------------------------------|-----------------------------|

[ Tab from: http://www.guitartabs.cc/tabs/m/megaman_2/ending_theme_tab.html ]
                                                                              
---------------------------|-----------9------------|---------------7--5-----|
--------14--15----14-12----|-------12---------10----|------9---10------------|
---------------------------|------------------------|------------------------|
---------------------------|------------------------|------------------------|
---------------------------|------------------------|------------------------|
---------------------------|------------------------|------------------------|


                                                     
-----4---5---9--14-----|----------------------------|
-----------------------|-------14---12----12----14--|
-----------------------|---------------14-----------|
-----------------------|----------------------------|
-----------------------|----------------------------|
-----------------------|----------------------------|


                                                           
---------------------------|---------------------------10-|
-------------9--10---------|---------------10-----9-------|
--11-----11-------------11-|-----------11------9----------|
---------------------------|---12-------------------------|
---------------------------|-------12---------------------|
---------------------------|------------------------------|


                                                                
-----9--7----5--------|------------------|---8--7--5-----------|
----------------------|------------------|---------------------|
----------------------|------------------|---------------------|
----------------------|------------------|---------------------|
----------------------|------------------|---------------------|
----------------------|------------------|---------------------|


                                                                 
------------------8-|----7--5-------------|-------------------3-|
--------------------|---------------------|-------6------6-6----|
--------------------|---------------------|---------------------|
--------------------|---------------------|---------------------|
--------------------|---------------------|---------------------|
--------------------|---------------------|---------------------|


                                                             
-------0------------|------------------|-------------------||
--------------------|------------------|-------------------||
--------------------|------------------|-------------------||
--------------------|------------------|-------------------||
--------------------|------------------|-------------------||
--------------------|------------------|-------------------||


Comments