Megaherz - Wer Bist Du Chords & Tabs

 

Wer Bist Du Chords & Tabs

Megaherz Chords & Tabs

Version: 1 Type: Tab 0 ratings
1 star 2 stars 3 stars 4 stars 5 stars
comments

Wer Bist Du Tab

   
Megaherz - Wer Bist Du
Submitted By: Nate Dunne
EMail: Natedunne@icqmail.com


Tuning:
|-D#-|
|-A#-|
|-F#-|
|-C#-|
|-G#-|
|-C#-|

 

 
 
 

(0:10) Intro
(1:19) First Verse
(0:48) Chorus
(1:07) Second Verse
(1:51) Interlude
(2:00) Chorus
(2:10) Chorus
(2:20) Chorus
(2:29) Chorus
(2:44) Chorus
(2:53) Chorus

Intro
D#-----------------------------------------------------------------|
A#-----------------------------------------------------------------|
F#-----------------------------------------------------------------|
C#-----------------------------------------------------------------|
G#-3/4-2-2-4-3-2-3-2/3-2-2-1-2-2-3-3/4-2-2-4-3-2-2-2/3-2-2-3/4-4\3-|
C#-3/4-2-2-4-3-2-3-2/3-2-2-1-2-2-3-3/4-2-2-4-3-2-2-2/3-2-2-3/4-4\3-|



Note: You should be able to pick it up by listening to the part 
by yourself.

First Verse
D#----------------------------------|------------------------------|
A#----------------------------------|------------------------------|
F#----------------------------------|------------------------------|
C#----------------------------------|------------------------------|
G#-2-2-----2-2-----2-2-----2-2--2-2-|------------------------------|
C#-2-2-----2-2-----2-2-----2-2--2-2-|------------------------------|

D#-----------------------------------------------------------------|
A#-----------------------------------------------------------------|
F#-----------------------------------------------------------------|
C#-----------------------------------------------------------------|
G#-3/4-2-2-4-3-2-3-2/3-2-2-1-2-2-3-3/4-2-2-4-3-2-2-2/3-2-2-3/4-4\3-|
C#-3/4-2-2-4-3-2-3-2/3-2-2-1-2-2-3-3/4-2-2-4-3-2-2-2/3-2-2-3/4-4\3-|

D#-----------------------------------------------------------------|
A#-----------------------------------------------------------------|
F#-----------------------------------------------------------------|
C#-----------------------------------------------------------------|
G#-3/4-2-2-4-3-2-3-2/3-2-2-1-2-2-3-3/4-2-2-4-3-2-2-2/3-2-2-3/4-4\3-|
C#-3/4-2-2-4-3-2-3-2/3-2-2-1-2-2-3-3/4-2-2-4-3-2-2-2/3-2-2-3/4-4\3-|

D#---------------------------------|-------------------------------|
A#---------------------------------|-------------------------------|
F#---------------------------------|-------------------------------|
C#---------------------------------|-------------------------------|
G#-2-2-----2----------2-2--------2-|-------------------------------|
C#-2-2-----2----------2-2--------2-|-------------------------------|
[ Tab from: http://www.guitartabs.cc/tabs/m/megaherz/wer_bist_du_tab.html ]
Chrous
D#-----------------------------------------------------------------|
A#-----------------------------------------------------------------|
F#-----------------------------------------------------------------|
C#-----------------------------------------------------------------|
G#-3/4-2-2-4-3-2-3-2/3-2-2-1-2-2-3-3/4-2-2-4-3-2-2-2/3-2-2-3/4-4\3-|
C#-3/4-2-2-4-3-2-3-2/3-2-2-1-2-2-3-3/4-2-2-4-3-2-2-2/3-2-2-3/4-4\3-|



Second Verse
D#-----------------|-----------------------------------------------|
A#-----------------|-----------------------------------------------|
F#-----------------|-----------------------------------------------|
C#-----------------|-----------------------------------------------|
G#-2-2-----2-2-----|-----------------------------------------------|
C#-2-2-----2-2-----|-----------------------------------------------|

D#-----------------------------------------------------------------|
A#-----------------------------------------------------------------|
F#-----------------------------------------------------------------|
C#-----------------------------------------------------------------|
G#-3/4-2-2-4-3-2-3-2/3-2-2-1-2-2-3-3/4-2-2-4-3-2-2-2/3-2-2-3/4-4\3-|
C#-3/4-2-2-4-3-2-3-2/3-2-2-1-2-2-3-3/4-2-2-4-3-2-2-2/3-2-2-3/4-4\3-|



Interlude
D#-------------------------------|---------------------------------|
A#-------------------------------|---------------------------------|
F#-------------------------------|---------------------------------|
C#-------------------------------|---------------------------------|
G#-2-----------------------------|---------------------------------|
C#-2---|---------------------------------|

D#-----------------------------------------------------------------|
A#-----------------------------------------------------------------|
F#-----------------------------------------------------------------|
C#-----------------------------------------------------------------|
G#-3/4-2-2-4-3-2-3-2/3-2-2-1-2-2-3-3/4-2-2-4-3-2-3-2/3-2-2-1-2-2-3-|
C#-3/4-2-2-4-3-2-3-2/3-2-2-1-2-2-3-3/4-2-2-4-3-2-3-2/3-2-2-1-2-2-3-|

D#---------------------------------|-------------------------------|
A#---------------------------------|-------------------------------|
F#---------------------------------|-------------------------------|
C#---------------------------------|-------------------------------|
G#-3/4-2-2-4-3-2-3-2/3-2-2-1-2-2-3-|-------------------------------|
C#-3/4-2-2-4-3-2-3-2/3-2-2-1-2-2-3-|-------------------------------|
Comments