Megaherz - Herz Aus Stein Chords & Tabs

 

Herz Aus Stein Chords & Tabs

Megaherz Chords & Tabs

Version: 2 Type: Tab 0 ratings
1 star 2 stars 3 stars 4 stars 5 stars
comments

Herz Aus Stein Tab

Artist - Megaherz
Song - Herz Aus Stein
Alblum - Kopfschuss
Tabbed by - Travis Naylor (naylor@sniper.com)


Key: ~ = Ring out
     * = Natural Harmonic

[ Tab from: http://www.guitartabs.cc/tabs/m/megaherz/herz_aus_stein_tab_ver_2.html ]
Intro: w/echo
Guitar 1
E------------------------------------------------------|
B--5~----6~----8~----9~\5~----6~----8~----9~-----------|
G------------------------------------------------------|
D------------------------------------------------------|
A------------------------------------------------------|
E------------------------------------------------------|
Guitar 1 w/ Wah pedal
(This part is also the chorus)
E------------------------------------------------------|
B--11--5--7--9--9/11~---5--7--9--9~---5--7--9--9\------|
G------------------------------------------------------|
D------------------------------------------------------|
A------------------------------------------------------|
E------------------------------------------------------|
Guitar 2
E------------------------------------------------------|
B------------------------------------------------------|
G------------------------------------------------------|
D-----7-7-7-7-7----------5-5-5-5-5----------9-9-9-9-9--|
A-----7-7-7-7-7----------5-5-5-5-5----------9-9-9-9-9--|
E-----7-7-7-7-7----------5-5-5-5-5----------9-9-9-9-9--|

Most of the song is based on the intro and chorus (above)
so it shouldn't be too hard to figure out, but if enough
people ask me to finish it I probably will. gOOD LUCK!
Comments