Megadeth - Youthanasia Chords & Tabs

 

Youthanasia Chords & Tabs

Megadeth Chords & Tabs

Version: 4 Type: Tab 0 ratings
1 star 2 stars 3 stars 4 stars 5 stars
comments

Youthanasia Tab

   
e|---------------------------intro-------------------------------|
B|---------------------------------------------------------------|
G|---------------------------------------------------------------|
D|-----2-----4-----5-----4-------------2-----4-----5-----4-----5-|
A|-2-2---2-2---2-2---2-2---2-2-3-2-2-2---2-2---2-2---2-2---2-2-3-|
E|---------------------------------------------------------------|
   . .   . .   . .   . .   . . . . . .   . .   . .   . .   . .
e|-----------------------------------------------------------------|
B|-----------------------------------------------------------------|
G|-----------------------------------------------------------------|
D|-----2-----4-----5-----4-------------2-----4-----5-----4-----5-5-|
A|-2-2---2-2---2-2---2-2---2-2-3-2-2-2---2-2---2-2---2-2---2-2-3-2-|
E|-----------------------------------------------------------------|
   . .   . .   . .   . .   . . . . . .   . .   . .   . .   . .
e|---------------------------------------------------------------|
B|---------------------------------------------------------------|
G|---------------------------------------------------------------|
D|-----2-----4-----5-----4-------------2-----4-----5-----4-----5-|
A|-2-2---2-2---2-2---2-2---2-2-3-2-2-2---2-2---2-2---2-2---2-2-3-|
E|---------------------------------------------------------------|
   . .   . .   . .   . .   . . . . . .   . .   . .   . .   . .
e|---------------------------------------------------------------------|
B|---------------------------------------------------------------------|
G|---------------------------------------------------------------------|
D|-----2-----4-----5-----4-------------2-----4-----5-----4-----5-5-----|
A|-2-2---2-2---2-2---2-2---2-2-3-2-2-2---2-2---2-2---2-2---2-2-3-2-5-5-|
E|-----------------------------------------------------------------3-2-|
   . .   . .   . .   . .   . . . . . .   . .   . .   . .   . .

[ Tab from: http://www.guitartabs.cc/tabs/m/megadeth/youthanasia_tab_ver_4.html ]
e|-------------------verse-----------------------|
B|-----------------------------------------------|
G|-----------------------------------------------|
D|-2-2-2-5-2-2-2-3-2-2-2-5-2-2-2-4/5-----4/5-----|
A|-2-2-2-5-2-2-2-3-2-2-2-5-2-2-2-4/5-----4/5-----|
E|-0-0-0-3-0-0-0-1-0-0-0-3-0-0-0-2/3-0-0-2/3-0-0-|
                                     . .     . .
e|---------------chorus--------------|
B|-----------------------------------|
G|---------------------------------5-|
D|-----4-----5-4-2-----------------5-|
A|-2-2---2-2-------2-2-3-2-2-5-2-2-3-|
E|-----------------------------------|
   . .   . .       . . . . . . . .
e|------------solo-harmony-------------|D|-5-4-2-5-4-2-|
A|-5-4-2-3-2-2-|
E|-3-2-0-----0-|

e|----------riff-3------x3--|---|---|-----|
B|--------------------------|---|---|-----|
G|--------------------------|---|---|-----|
D|-------------------------2|-5-|-3-|-4/5-|
A|-------------------------2|-5-|-3-|-4/5-|
E|-0-0-0-0-0-0-0-0-0-0-0-0-0|-3-|-1-|-2/3-|
   . . . . . . . . . . . .
e|--------------outro----------------|
B|-----------------------------------|
G|-----------------------------------|
D|-----2-----4-----5-----4---------2-|
A|-2-2---2-2---2-2---2-2---2-2-3-2-2-|
E|---------------------------------0-|
   . .   . .   . .   . .   . . . .

Order:
intro-x1
verse-x10
chorus-x8 (solo-Joe)
harmony fill 1-x1
verse-x10
chorus-x8 (solo-Josh)
harmony fill 2-x1
riff 1-x4 (solo-Joe)
riff 2-x1
riff 3-x1 (solo-Josh)
riff 2-x1
riff 1-x4 (solo-Joe)
riff 2-x1
riff 3-x1 (solo-Josh)
riff 2-x1
outro-x1
Comments