Megadeth - Youthanasia Chords & Tabs

 

Youthanasia Chords & Tabs

Megadeth Chords & Tabs

Version: 1 Type: Bass Tab 0 ratings
1 star 2 stars 3 stars 4 stars 5 stars
comments

Youthanasia Bass Tab

Youthanasia by Megadeth from January 1995 Guitar School magazine

                     
[May be played on 4-string bass: numbers in  are played on string shown
to replace note played on low B string.  Numbers in  with dash above them
are notes played an octave higher than transcribed for 5-string bass.]
                                          
5-string electric bass


                     1.,2.,3.
                    |~~~~~~~~~~~~~~~~~~~
G:---------------------------------------|-------------------|
D:*---------------------------------5\--*|-------------------|
A:---------------------------------------|-------------------|
E:*------------5----6---7------*|---5----6---7--r---|
B:---5----7------8-----------------------|-------------------|

                                                            %sign

G:---------------|-----------------|-------------------------------|
D:---------------|-----------------|-----_--_--_----_--------------|
A:---------------|-Bass-Rest--(6)--|--R----------------|
E:------------|-----------------|----------------------------|
B:--5-\----------|-----------------|-----2--2--3----4-----5-\------|
                                                         grad.sld.
                                                             1.Who'd

                                                         2nd time|
                                                        to Coda -0-
                                                                 |
G:-----------------|------------------------------|-----------------|
D:-----------------|-----_--_--_----_-------------|-----------------|
A:--Bass-Rest-(6)--|--R---------------|--Bass-Rest-(7)--|
E:-----------------|---------------------------|-----------------|
B:-----------------|-----2--2--3----4----5-\------|-----------------|
                                        grad.sld.
   believe...

                                                      D.S. % al
                       1.,2.,3.               4.         Coda
                      |~~~~~~~~~~~~~~~~~~~~  |~~~~~~~~~~~~~~~~
G:-------------------|----------------------|-----------------|
D:*------------------|----------------5\---*|-----------------|
A:-------------------|----------------------|-----------------|
E:*---------|---5----6---7--------*|--5-----6---7----|
B:--5----7-------8---|----------------------|-----------------|


     | CODA                                                
    -0-
     |                            (x3)
   G:-----------------|-------------------|------------------|
   D:*----------------|--------------5\--*|------------------|
   A:-----------------|-------------------|------------------|
   E:*-------|--5----6---7------*|---------|
   B:---5----7-----8--|-------------------|--5----7------8---|
 

G:----------------------------|------------------------------------|
D:----------------------------|*------~~~~~~~----------------------|
A:--/10--/10--/10--/9--9--9---|-------7------------------5--(5)\---|
E:----------------------------|*-------------7-6---6------------|
B:----------------------------|---5--------------------------------|

[ Tab from: http://www.guitartabs.cc/tabs/m/megadeth/youthanasia_btab.html ]
G:--------------------------|---------------------------------|
D:------~~~~~~--------------|------~~~~~~---------------------|
A:------7-------------------|------7----------------5---(5)\--|
E:-----------7-6---6-3---|-----------7-6---6------------|
B:--5-----------------------|--5------------------------------|


G:-------------------------------|
D:------~~~~~~------------------*|
A:------7------------------------|
E:-----------7--6----R-------*|
B:--5----------------------------|


G:--------------------------------------------------------------7--9--(9)\---|
D:---------------------------------------------------------7-9---------------|
A:---------------------------------------------------------------------------|
E:-------------------------------------------------|
B:--5------r-----5--5--------r----5-5--5----r------5--5--------------------5-|


G:--------------------------------------------------------|
D:--------------------------------------------------------|
A:--------------------------------------------------------|
E:------------------------3--4----5---|
B:----r---5--5-----r----5-5--5-----r---5--5---------------|


      Gtr Solo
G:--------------------------------------------------------------------|
D:*-------------------------------------------------------------------|
A:--------------------------------------------------------------------|
E:*-7-7-7-7-7-7-7-7-7-7-7-7-7-7-7-7--|
B:---5-5-5-5-5-5-5-5-5-5-5-5-5-5-5-5----------------------------------|


                                                         (x4)
G:-------------------------------------------------------------|
D:------------------------------------------------------------*|
A:-------------------------------------------------------------|
E:-6-6-6-6-6-6-6-6-6-6-6-6-6-6-6-6-3--3-3-3-3-3-3-3--4----5---*|
B:-------------------------------------------------------------|


                                                         (x2)
G:------------------------------------------------------------|---------|
D:*----------------------------------------------------------*|---------|
A:------------------------------------------------------------|---Rest--|
E:*-------3--4----5---*|---------|
B:--5-5--5---5-5--5-5---5---5-5--5-5---5---5-5----------------|---------|


G:-------------------------------|------------------------|
D:*-----~~~~---------------------|-----~~~~---------------|
A:------7---------------5--(5)\--|-----7------------------|
E:*--------7--6---6-----------|--------7-6---6-3----|
B:---5---------------------------|--5---------------------|


                                                         (x3)
G:--------------------------------|--------------------------|
D:------~~~~~~--------------------|------~~~~---------------*|
A:------7----------------5--(5)\--|------7-------------------|
E:-----------7-6---6-----------|----------7--6--------*|
B:--5-----------------------------|--5-----------------------|
/----------------------------------------\ 
|  ____    ____                          |
| (    `--'  .-'               _T_T_T_T_ |
| |8| O  O  |||||||||||||||||||[o o o o/ | 
| (__,--.____\                 `~~~`--'  |
|     from the desk of jaco pastorius..  |
|            jazzbass@cfw.com            |
|  http://www.vt.edu:10021/A/acanterb/   |
\----------------------------------------/




Comments