Megadeth - World Needs A Hero Chords & Tabs

 

World Needs A Hero Chords & Tabs

Megadeth Chords & Tabs

Version: 3 Type: Tab 0 ratings
1 star 2 stars 3 stars 4 stars 5 stars
comments

World Needs A Hero Tab

Intro: (only drums and bass)
End verse: 

e------------|        
B------------| 
G--4---5-2-3-|       play it 5 times
D--4---5-2-3-|
A--2---3-0-1-|
E------------|

Riff(Chorus): (The world needs a hero...)

e------------------------------------|
B------------------------------------|
G------------------------------------|   play it many times
D------------------------------------|
A-----3----3----------3-3h5-6-5-3----|
E--3h5--3h5--5-3---3h5---------------|


Outro:
[ Tab from: http://www.guitartabs.cc/tabs/m/megadeth/world_needs_a_hero_tab_ver_3.html ]
e---------------------------------------------------------|
B---------------------------------------------------------|
G---------------------------------------------------------|
D---------------------------------------------------------|
A----------------333333555555556666666655555553333333333--|
E--55553333355555-----------------------------------------|

        (Stroke up&down the string very fast)

Sorry but I can't tab the solos.
Hope it helps.

Questions & others, e-mail me: meana85@hotmail,com
Comments